Cifra Club

Broken

Seether

Acordes: Principal
reproducciones 7.198
Tono: G
Introdução: Em  C9  (3x)
            D

(Violão)


E|-2h3-----3--3------3----------------------|
B|-----0------3----3---3-----3--------------|
G|-------0----0--0---------0----------------|
D|-2---------------------0------------------|
A|------------3-----------------------------|
E|------------------------------------------|


E|-0h2-----3p2---0h2-------3p2--------------|
B|-----3-------3-----3---------3------------|
G|-------2-------------2---------2----------|
D|-----------------------0------------------|
A|------------------------------------------|
E|------------------------------------------|


(Violão)

  H.N     .         .    .    .

E|-12--------------------------------------------------|
B|-------12---------7----------------------------------|
G|-----------------------7-----------------------------|
D|----------------------------7------------------------|
A|-----------------------------------------------------|
E|-----------------------------------------------------|



Primeira Parte:

Em       C9
   I wanted you to know 
Em               C9
   That I love the way you laugh
Em       C9
   I wanna hold you high 
      D
And steal your pain away

Em        C9
   I keep    your photograph
Em            C9
   And I know    it serves me well
Em       C9
   I wanna hold you high 
      D
And steal your pain


Primeiro Refrão:

             C  Em
'Cause I'm bro_ken 
     D    C   Em
When I'm lonesome
    D        C    Em
And I don't feel right 
      D      C     Em
When you're gone away

Em  C9                  Em  C9
       You've gone away
                   Em  C9
You don't feel me here 
    D
Anymore


Segunda Parte:

Em           C9
   The worst is over now 
Em      C9
   And we can breathe again
Em       C9
   I wanna hold you high 
      D
And steal my pain away
Em             C9
   There's so much left to learn
Em      C9
   And no one left to fight
Em       C9
   I wanna hold you high 
      D
And steal your pain


Segundo Refrão:

             C  Em
'Cause I'm bro_ken 
     D   C  Em
When I'm o_pen
    D        C    Em
And I don't feel like 
D      C     Em
I'm strong enough
             C  Em
'Cause I'm bro_ken 
     D    C   Em
When I'm lonesome
    D        C    Em
And I don't feel right 
      D      C     Em
When you're gone away


Solo:


E|-----------------------------------0-----------------|
B|-------------------------------0-------0-------------|
G|-------------------2---------------------------------|
D|-------0-2-x--5\4----5-4-0h2-------------------------|
A|---0h2-----------------------------------------------|
E|-0---------------------------------------------------|


E|-----------------------------------------------------|
B|-----------------------------------------------------|
G|----------------------------------7h9~---7~----------|
D|-------0-2-x--5\4--4h5-4h5/-7~/9---------------------|
A|---0h2-----------------------------------------------|
E|-0---------------------------------------------------|


E|-----------------------------------------------------|
B|-----------------------------------------------------|
G|-----------------------------------------------------|
D|-7-7/9--9-9-9~---------------------------------------|
A|-----------------------------------------------------|
E|-----------------------------------------------------|



Terceiro Refrão:

             C  Em
'Cause I'm bro_ken 
     D   C  Em
When I'm o_pen
    D        C    Em
And I don't feel like 
D      C     Em
I'm strong enough

             C  Em
'Cause I'm bro_ken 
     D    C   Em
When I'm lonesome
    D        C    Em
And I don't feel right 
      D      C     Em
When you're gone away

( C  Em  D )  (3x)

( C  Em )

             C  Em
'Cause I'm bro_ken 
     D    C   Em
When I'm lonesome
    D        C    Em
And I don't feel right 
      D      C   Em
When you're gone

Em  C9                  Em  C9
       You've gone away
                   Em  C9
You don't feel me here 
    D   Em
Anymore
Acordes para:

    0 comentarios

      mostrar mas comentarios

      ¿Conseguiste tocar?

      57tocaron0aún no

      ¡Grave un vídeo tocando Broken y envie para nosotros!

      00:00 / 00:00
      outros vídeos desta música
      repetirqualidadeautomática
      Outro vídeos desta música
        00:00 / 00:00
        automática
        Capítulos
        • Tocando a música
        • Dicas Iniciais / Equipamentos
        • Acordes da Introdução
        • Tocando a Introdução
        • Introdução - Riff Principal
        • Introdução - Guitarra
        • Tocando a Primeira Parte
        • Introdução: Riff Principal - Parte 1 de 2
        • Introdução: Riff Principal - Parte 2 de 2
        • Ritmo da Primeira Parte
        • Tocando o Primeiro Refrão
        • Ritmo do Refrão
        • Tocando a Segunda Parte - Solo
        • Solo - Parte 1 de 2
        • Solo - Parte 2 de 2
        • Tocando o Terceiro Refrão - Quarta Parte
        • Ritmo do Final
        • Encerramento
        • Ficha Técnica
        OK