Cifra Club

Cannon

Self

Cifrado: Principal (guitarra y guitarra eléctrica)
Selo Cifra Club: esta cifra foi revisada para atender aos critérios oficiais da nossa Equipe de Qualidade.
tono: Am
Intro Riff:
E|------------------------|
B|--------0----------0----|
G|----------11---------8--|
D|------------------------|
A|-----12----------9------|
E|--10----------/7--------|

Verse Riff:
E|------------------------------------------------------------|
B|------------------------------------------------------------|
G|--5-5-5-5-5-5-5-5-------------------------------10-10-10-10-|
D|--5-5-5-5-5-5-5-5-6-6-6-6-10-10-10-10-8-8-8-8-8/10-10-10-10-|
A|--3-3-3-3-3-3-3-3-6-6-6-6-8--8--8--8--6-6-6-6-6/8--8--8--8--|
E|------------------4-4-4-4-8--8--8--8--6-6-6-6-6/8--8--8--8--|

E|--------------------------------------------------------------|
B|------5---5~~/6-----------------------------------------------|
G|--5-5-5-5-5~~/6---5--5----4--------------------8--8--8--8--8--|
D|--5-5-5-5-5~~/6-6-6-6-5-5-5-5/8-8-8-8-10-10-10-10-10-10-10-10-|
A|--3-3-3-3-3~~/4-6-6-6-5-5-5-5/6-6-6-6-8--8--8--8--8--8--8--8--|
E|----------------4-4-4-3-3-3-3/6-6-6-6-8--8--8--8--8--8--8--8--|

Chorus Riff:
E|-----------------|-----------------------|
B|-----------------|-----------------------|
G|*--4-4-----5-5--*|--------------0--------|
D|*--4-4-6-6-5-5--*|--3-3-2-3--------------|
A|---2-2-6-6-3-3---|--3-3-2-3-2^3~~~~~~~~--|
E|-------4-4-------|--1-1-0-1--------------|
 |               x3|                       |
E|-----------------|-----------------------|
B|-----------------|--6-6-5-6--------------|
G|*--8-8-7-5-9-9--*|--------------0--------|
D|*---------------*|--3-3-2-3--------------| Gtr II (w/ phaser)
A|---6-6-5-3-7-7---|----------2^3~~~~~~~~--|
E|-----------------|-----------------------|

Octave Riff I:
E|-----------------------------------|
B|-----------------------------------|
G|----5-----------4----7-----------6-|
D|--------5---6------------6---7-----|
A|--3-----------2----5-----------4---|
E|------3---4------------4---5-------|

Octave Riff II:
E|-----------------------------------|
B|-----------------------------------|
G|----------------4----7-----------6-|
D|--------5---6------------6---7-----|
A|--3---3-------2----5-----------4--0|
E|----3-3--34------------4---5-------|

Pre-Solo Rhythm Fill:
E|------------------|
B|------------------|
G|--5-5-5-5-5-x-x-x-| Gtr I
D|--5-5-5-5-5-x-x-x-|
A|--3-3-3-3-3-x-x-x-|
E|------------------|
 |                  |
E|------------------|
B|------------------|
G|------------------|
D|--5*5*5*5*5\------| Gtr II
A|------------------|
E|------------------|

Solo: (w/ very fast phaser effect, around 16th note speed)
E|-----------------------------------------------------------------|
B|-----------------------------------------------------------------|
G|--7^9~~~~~~~~~~~~~~~~--7^8^7-5-7^8.5***--5-----------------------|
D|-------------------------------------------10\8\\5\7***********--|
A|-----------------------------------------------------------------|
E|-----------------------------------------------------------------|

E|------------------------------------------------------------------|
B|------------------------------------------------------------------|
G|--7^9~~~~~9^12~~\5~~--7^8^7-5-7^8.5***--5-------------------------|
D|------------------------------------------10\8\\5\3*****/5******--|
A|------------------------------------------------------------------|
E|------------------------------------------------------------------|

E|--------------------------------------------------------------------|
B|--------------------------------------------------------------------|
G|--7^9~~~~~9^13.5~~\5~~--7^8^7-5-7^8.5***--5-------------------------|
D|--------------------------------------------10\8\\5\3*****/5******--|
A|--------------------------------------------------------------------|
E|--------------------------------------------------------------------|

E|------------------------------------------------------------------|
B|------------------------------------------------------------------|
G|--7^9~~~~~9^12~~\5~~--7^8^7-5-7^8.5***--5-------------------------|
D|------------------------------------------10\8\\5\3*****/5******--|
A|------------------------------------------------------------------|
E|------------------------------------------------------------------|

Order:

Intro Riff x2
Verse Riff x2
Chorus Riff x2
Verse Riff x2
Chorus Riff x2
Octave Riff x4 (Octave Riff Backing comes in for last two repeats)
Pre-Solo Rhythm Fill x2
Solo (w/ Verse Riff for backing)
Verse Riff x1
Chorus Riff x2
Otros videos de esta canción
    2 exhibiciones
      • ½ Tono
      • Am
      • Bbm
      • Bm
      • Cm
      • C#m
      • Dm
      • Ebm
      • Em
      • Fm
      • F#m
      • Gm
      • G#m
    • Agregar a la lista

    Afinação da cifra

    Afinador online

      Ops (: Contenido disponible solo en portugués.
      OK