Cifra Club

Kaiowas

Sepultura

Cifrado: Principal (guitarra y guitarra eléctrica)
Selo Cifra Club: esta cifra foi revisada para atender aos critérios oficiais da nossa Equipe de Qualidade.
tono: E
------------------------------------------------
------------------------------------------------
-7--7-7-7-7--7--7-7-7-7--4--4-4-4-4--4--4-4-4-4-
------------------------------------------------
-5--5-5-5-5--5--5-5-5-5--2--2-2-2-2--2--2-2-2-2-
-0--0-0-0-0--0--0-0-0-0--0--0-0-0-0--0--0-0-0-0-

------------------------------------------------
------------------------------------------------
-3--3-3-3-3--3--3-3-3-3--3--3-3-3-3--3--3-3-3-3-
------------------------------------------------
-1--1-1-1-1--1--1-1-1-1--1--1-1-1-1--1--1-1-1-1-
-0--0-0-0-0--0--0-0-0-0--0--0-0-0-0--0--0-0-0-0-X4

--------------------------------------------------
--------------------------------------------------
-11----------11----------13-----------13----------
--------------------------------------------------
-9-----------9-----------11-----------11----------
----0-0-0-0-----0-0-0-0------0-0-0-0------0-0-0-0-X4

------------------------------------------------
------------------------------------------------
-7--7-7-7-7-7--7-7-7-7-13-13131313-13-13131313--
------------------------------------------------
-5--5-5-5-5-5--5-5-5-5-11-11111111-11-11111111--
-0--0-0-0-0-0--0-0-0-0-0--0-0-0-0--0--0-0-0-0---\
                                                 X4
------------------------------------------------
------------------------------------------------
-7--7-7-7-7-7--7-7-7-7-11-11111111-11-11111111--
------------------------------------------------
-5--5-5-5-5-5--5-5-5-5-9--9-9-9-9--9--9-9-9-9---
-0--0-0-0-0-0--0-0-0-0-0--0-0-0-0--0--0-0-0-0---

--------------
--------------
--------------
-7---7-6--6-6-
-5---5-5--5-5-
-0---0-0--0-0-X4

------------
------------
-7--7-7-7-5-
------------
-5--5-5-5-3-
-0--0-0-0-0-X16


(solo na viola....:)

-8-8-8-8--7--55-5-5-5--3--
-10101010-8--77-7-7-7--5--
--------------------------
--------------------------
--------------------------
--------------------------X2

-8-8-8-8--7--55-5-5-5--3-3-3-|-5-5-5-5-3-3-3-3-5-5-5-5-
-10101010-8--77-7-7-7--5-5-5-|-7-7-7-7-5-5-5-5-7-7-7-7-
-----------------------------|-------------------------
-----------------------------|-------------------------
-----------------------------|-------------------------
-----------------------------|-------------------------

-10-10-10-10--12-12-12--10-10-10--8--8--8--|-7-7-7--5-5-5--3-3-3-5-
-12-12-12-12--13-13-13--12-12-12--10-10-10-|-8-8-8--7-7-7--5-5-5-7-
-------------------------------------------|-----------------------
-------------------------------------------|-----------------------
-------------------------------------------|-----------------------
-------------------------------------------|-----------------------

-10-10-10-10--12-12-12--10-10-10--8--8--8--|-7-7-7--5-5-5--3-3-3-2-2-2-2-
-12-12-12-12--13-13-13--12-12-12--10-10-10-|-8-8-8--7-7-7--5-5-5-3-3-3-3-
-------------------------------------------|-----------------------------
-------------------------------------------|-----------------------------
-------------------------------------------|-----------------------------
-------------------------------------------|-----------------------------

--------------------------
--------------------------
-7-7-7-7-7-7-5--7---7---5-
--------------------------
-5-5-5-5-5-5-3--5---5---3-
-0-0-0-0-0-0-0--0---0---0-X4

-----------
-----------
-7-7-7-7-7-
-----------
-5-5-5-5-5-
-0-0-0-0-0-

Otros videos de esta canción
    13.851 exhibiciones
      • ½ Tono
      • A
      • Bb
      • B
      • C
      • Db
      • D
      • Eb
      • E
      • F
      • F#
      • G
      • Ab
    • Agregar a la lista

    Afinación de cifrado

    Afinador online

      OK