Cifra Club

Aprenda

Drama da Geada

Sérgio Reis

Tablatura: Principal (guitarra)
Tom: G
E |-9---9--9---9--9--7--9--9--10-10-12-12--9--9-7-------------|
B |10--10-10--10-10--9-10-10--12-12-14-14-10-10-9-------------|
G |-----------------------------------------------------------|
D |-----------------------------------------------------------|
A |-----------------------------------------------------------|
E |-----------------------------------------------------------|

E |-4--4-4--4-4--2-4-4-5-5--7--10-10-10--9----------------------|
B |-5--5-5--5-5--3-5-5-7-7--9--12-12-12-10----------------------|
G |-----------------------------------------------------------|
D |-----------------------------------------------------------|
A |-----------------------------------------------------------|
E |-----------------------------------------------------------|

E |-9---9--9---9--9--7--9--10-10-12-12--10---9----------------|
B |10--10-10--10-10--9-10--12-12-14-14--12--10----------------|
G |-----------------------------------------------------------|
D |-----------------------------------------------------------|
A |-----------------------------------------------------------|
E |-----------------------------------------------------------|

E |-4--4-4--4-5--3-4---2-2--0-0---0---------------------------|
B |-5--5-5--4-5--4-5---3-3--0-0---2---------------------------|
G |-------------------------------2---------------------------|
D |-------------------------------2---------------------------|
A |-----------------------------------------------------------|
E |-----------------------------------------------------------|

G
Uma vez fui conhecer um cafezal lá em São Paulo
                     D
O dono era o Major com apelido de seu Saulo
                 G
Ele contava a história de como fez sua fazenda
                  D
Era tão bonita, parecia uma lenda

    C          G      D
Essa tarde o Major estava com medo da geada
 C
Vinha se aproximando da fazenda agitada
                  D
Na manhã seguinte estava tudo esbranquiçado
            G
O major tinha sumido e o cafezal estava estragado

                        C
Passara dia e noite todo mundo procurando
                           D
Sua Mulher desesperada, seu nome estava chamando
G
No outro dia bem cedinho, o Major foi encontrado
                      D
Ele estava louco, com os olhos desvairados

C         D          G     (C G D G C G D G C G)
Colaboración y revision:
  • Amanda Carvalho
18 reproducciones
    • ½ Tom
    • A
    • Bb
    • B
    • C
    • Db
    • D
    • Eb
    • E
    • F
    • F#
    • G
    • Ab
  • Adicionar à lista

    0 comentarios

    Mostrar mais comentários

    ¿Conseguiste tocar?

    0 Tocaron 0 Ainda não

    Grave um vídeo tocando Drama da Geada e mande pra gente!

    00:00 / 00:00
    outros vídeos desta música
    repetir qualidade Automático
    Outros vídeos desta música
    00:00 / 00:00
    Automático
    OK