Cifra Club

Aprenda

Menino da Porteira

Sérgio Reis

Tab de bajo: Iniciante
G|-------------------
D|------------2------
A|-0--0--4-----------
E|-------------------

G|-------------------
D|-------------------
A|-------------2-----
E|--0--0--4----------

G|-----------2-------
D|--0-0-4------------
A|-------------------
E|-------------------
Compositor Luizinho / Teddy Vieira
Colaboración y revision:
  • Luciano Monteiro
26 reproducciones

0 comentarios

Mostrar mais comentários
00:00 / 00:00
outros vídeos desta música
repetir qualidade Automático
Outros vídeos desta música
00:00 / 00:00
Automático
OK