Cifra Club

Aprenda

Tristeza do Jeca

Sérgio Reis

Tablatura: Principal (guitarra)
Tom: E
 E      A             E
Nestes versos tão singelos
       B7         E
Minha bela, meu amor
  E    A           E
Pra você quero contar
          B7            E  E7
O meu sofrer e a minha dor
A                 E
Eu sou como o sabiá
                    B7
Quando canta é só tristeza
                      E
Desde o galho onde está
 B7                                E
Nesta viola eu canto e gemo de verdade
 B7                           E
Cada toada representa uma saudade
E      A          E
Eu nasci naquela serra
         B7             E
Num ranchinho a beira chão
       A         E
Tudo cheio de buraco
        B7          E  E7
Onde a lua faz  clarão
  A                  E
Quando chega a madrugada
                 B7
Lá no mato a passarada
               E
Principia o barulhão
 B7                              E
Nesta viola, eu canto e gemo de verdade
 B7                           E
Cada toada representa uma saudade
 E       A          E
Vou guardar minha viola
        B7            E
Já não posso mais cantar
        A           E
Pois o Jeca quando canta
       B7          E  E7
Dá vontade de  chorar
A                E
O choro que vai caindo
                  B7
Devagar vai se sumindo
                       E
Como as àguas vão pro mar
 B7                              E
Nesta viola, eu canto e gemo de verdade
 B7                           E
Cada toada representa uma saudade

[Solo]

E|-7--7-9--9-7-5-5-4---4-4-5--5-5-7--|
B|-----------------------------------|
G|-----------------------------------|
D|-----------------------------------|
A|-----------------------------------|
E|-----------------------------------|

E|-9--11-12--12-11-9-9-7-------------|
B|-----------------------------------|
G|-----------------------------------|
D|-----------------------------------|
A|-----------------------------------|
E|-----------------------------------|

E|-7-9-11--11-9-7-7-5-9-9-7-7-5-5-4--|
B|-----------------------------------|
G|-----------------------------------|
D|-----------------------------------|
A|-----------------------------------|
E|-----------------------------------|

E|-2-4--4h5-5-9-9-7-7-5-5-4----------|
B|-----------------------------------|
G|-----------------------------------|
D|-----------------------------------|
A|-----------------------------------|
E|-----------------------------------|

E|-2-4--4h5-5-9-9-7-7-5-5-4----------|
B|-----------------------------------|
G|-----------------------------------|
D|-----------------------------------|
A|-----------------------------------|
E|-----------------------------------|
Compositor Angelino de Oliveira
Colaboración y revision:
675 reproducciones
    • ½ Tom
    • A
    • Bb
    • B
    • C
    • Db
    • D
    • Eb
    • E
    • F
    • F#
    • G
    • Ab
  • Adicionar à lista

    0 comentarios

    Mostrar mais comentários

    ¿Conseguiste tocar?

    14 Tocaron 0 Ainda não

    Grave um vídeo tocando Tristeza do Jeca e mande pra gente!

    00:00 / 00:00
    outros vídeos desta música
    repetir qualidade Automático
    Outros vídeos desta música
    00:00 / 00:00
    Automático
    OK