Cifra Club

A Carta

Sérgio Saint

Cifrado: Principal (guitarra y guitarra eléctrica)
tono: G
Intro: Riff1

Riff1    2X
     C                          D                  G            Am              D
e|-------------------3---------------------3--2---------------------------------------------------|
b|-0--0h1---------1-----1----1-------------------1-----------3------------------------------0-----|
g|-0--0---------0------------0--------0-------------0--------------0--2-2h4--2--0---------0-------|
d|-----------2---------------------2-------------------2---------0----------------4--0h2-------0--|
a|-3--3----------------------3-------------------------------2------------------------------------|
E|------------------------------------------------------------------------------------------------|

Hoje despertei você, mas nem lembrou que Eu estava aqui.
Estava te olhando
Quando então você saiu sem de mim se despedir e Eu
Estava te guiando

Riff2                           Riff3
      Am        
e|--------------------0-----|     |----0h2------------2--3---2--0------|
b|--0h1---------1------1----|     |----3----------3-----------------3--|
g|--2---------2-------------|     |------------2-----------------------|
d|---------2----------------|3X   |----0-------------------------------|
a|--0-----------------------|     |------------------------------------|
E|--------------------------|     |------------------------------------|

Eu te dei a vida te dei o meu amor
E só queria sua atenção

        G/B              D
Eu estou aqui a te esperar
            Am               D9 (Riff3)
Sofro de te ver sozinho a lutar
            G                   D
Eu te planejei bem antes de nascer
            Am             D9 (Riff3)
Olha para mim preciso de você
        Em                   D          G
Não importa aonde vá ao seu lado Eu estarei
          Am                      D
Não me cansarei, Eu quero teu coração.

Riff4    
        Am                                D         G           Am             D
e|-----------------0----------------------0--------------------------------------------------|
b|--0h1---------1-----1----1-----------1-----1------3---------------------------------0------|
g|--2--------0-------------0--------0------------------------0--2-2h4--2--0---------0--------|
d|--------2----------------------2-------------------------0-----------------4--2---------0--|
a|--0----------------------3------------------------2----------------------------------------|
E|-------------------------------------------------------------------------------------------|

A tarde logo então chegou os seus problemas, sim, eu resolvi
Sei que foi difícil
Ao chegar em casa vi que cansado estava e dormiu
É claro que eu te entendo

Riff2   (3X)                                                    Riff3
Triste eu fiquei, mas quero dizer que amanhã Eu o acordarei. 

        G/B              D
Eu estou aqui a te esperar
             Am             D9 (Riff3)
Sofro de te ver sozinho a lutar
            G                 D
Eu te planejei bem antes de nascer
           Am             D9 (Riff3)
Olha para mim preciso de você
        Em                  D             G
Não importa aonde vá ao seu lado Eu estarei
            Am                    D9 (Riff3)
Não me cansarei, Eu quero teu coração.
           G  D  G  D9  (Riff3)
Eu estou aqui

        G/B                D
Filho; estou aqui, a te esperar
            Am              D9  (Riff3)
Sofro de te ver sozinho a lutar
           G                  D
Eu te planejei bem antes de nascer
           Am             D9 (Riff3)
Olha para mim preciso de você
                G~
Meu nome é Jesus


        Em                   D           G
Não importa aonde vá ao seu lado Eu estarei
            Am                    D9 (Riff3)
Não me cansarei, Eu quero teu coração.
            G  D  G  D9  (Riff3)
Eu estou aqui

                Riff1  C
Meu nome é Jesus


Dica: A musica fica sem comparação dedilhada :D


Obs: Ainda falta fazer algumas correções = ] sileno_e_dias@hotmail.com
00:00 / 00:00
Otros videos de esta canción
Repetir
Otros videos de esta canción
Compositor no encontrado.
Colaboración y revisión:
  • Sileno Dias
25 vistas
    • ½ Tono
    • A
    • Bb
    • B
    • C
    • Db
    • D
    • Eb
    • E
    • F
    • F#
    • G
    • Ab
  • Agregar a la lista

    0 comentarios

    Ver todos los comentarios
    00:00 / 00:00
    OK