Cifra Club

A los jóvenes de ayer

Serú Girán

Cifrado: Principal (guitarra y guitarra eléctrica)
tono: Cm
E|------------------------------10-|-12-~-----------12-------10-------|
B|---------------------10-12-13----|------13-~---------13-------12----|
G|-----------7-9-10-12-------------|-----------12-~-------13-------13-|
D|----7-9-10-----------------------|----------------------------------|
A|-10------------------------------|----------------------------------|
E|---------------------------------|----------------------------------|

E|-9-7-6---6-7-9-7----11-~-7-|-7-~-----4-7-19-16----------16-|
B|-------9---------10--------|-------4-----------------16----|
G|---------------------------|-----4-------------16----------|
D|---------------------------|----------------------18-------|
A|---------------------------|-------------------------------|
E|---------------------------|-------------------------------|

E|------------------------------10-|-12-~-----------12-------10-------|
B|---------------------10-12-13----|------13-~---------13-------12----|
G|-----------7-9-10-12-------------|-----------12-~-------13-------13-|
D|----7-9-10-----------------------|----------------------------------|
A|-10------------------------------|----------------------------------|
E|---------------------------------|----------------------------------|

E|-9-7-6---6-7-9-7-6-----7-| |-9-10-12-10-9---10-12-14-12-||
B|-------9-----------7-8---| |--------------8-------------||
G|-------------------------| |----------------------------||
D|-------------------------| |----------------------------||
A|-------------------------| |----------------------------||
E|-------------------------| |----------------------------||

E|-10-~~~~~~~~~~~~~~~~~~~-7-|-9-~~~~~~~~~~~~~~~~~~~-7-|
B|--------7-----------7-----|-------7-----------7-----|
G|----4-7---7-4---4-7---7-4-|---4-7---7-4---4-7---7-4-|
D|-5------------5-----------|-5-----------5-----------|
A|--------------------------|-------------------------|
E|--------------------------|-------------------------|

E|-9-~~~~~~~~~~~~~~~~~~~-10-|-12-~~~~~~~~~~~~~~~~~~~~~-|
B|--------------------------|--------5-----------5-----|
G|-----6-7-6-------6-7-6----|------5---5-------5---5---|
D|-4-7-------7-4-7-------7--|-4--7-------7-4-7-------7-|
A|--------------------------|--------------------------|
E|--------------------------|--------------------------|
                            |           (x2)           |

E|-------------------------7-8-|-7-~-|
B|--------------------8-10-----|-----|
G|-------------7-9-10----------|-----|
D|------7-9-10-----------------|-----|
A|-8-10------------------------|-----|
E|-----------------------------|-----|

E|-----------------------------|-----|-----|-----|-----|
B|-----------------------------|-----|-----|-----|-----|
G|-------------7-9-7---------7-|-9-~-|-7-~-|-4-~-|-5-~-|
D|------7-9-10-------10-9-10---|-----|-----|-----|-----|
A|-8-10------------------------|-----|-----|-----|-----|
E|-----------------------------|-----|-----|-----|-----|
00:00 / 00:00
Otros videos de esta canción
Repetir
Otros videos de esta canción
Composición de Charly García
50 vistas
    • ½ Tono
    • Am
    • Bbm
    • Bm
    • Cm
    • C#m
    • Dm
    • Ebm
    • Em
    • Fm
    • F#m
    • Gm
    • G#m
  • Agregar a la lista

    0 comentarios

    Ver todos los comentarios

    ¿Lograste tocar?

    0 Tocaron 0 Aún no

    ¡Graba un video tocando A los jóvenes de ayer y envíanoslo!

    00:00 / 00:00
    OK