Cifra Club

Esperando nacer

Serú Girán

Cifrado: Principal (guitarra y guitarra eléctrica)
tono: A

Intro:
E|------------------------------------------------------------------|
B|-12b14-12b14b12--10-12--12b14---------10-10----12b13b12-10-----10-|
G|--------------------------------9h11--------11--------------11----|
D|------------------------------------------------------------------|
A|------------------------------------------------------------------|
E|------------------------------------------------------------------|

E|-------------------------------------------------------12b14------|
B|-12b13b12--10-12-12b13-12-10----12b14-12b14-10-12-14---------10---|
G|------------------------------------------------------------------|
D|------------------------------------------------------------------|
A|------------------------------------------------------------------|
E|------------------------------------------------------------------|

E|---------------------------------------10-------------------------|
B|----10-10----12b13b12--10-----10-12-14----12b13b12-10-12b13b12-10-|
G|-11-------11---------------11-------------------------------------|
D|------------------------------------------------------------------|
A|------------------------------------------------------------------|
E|------------------------------------------------------------------|

E|-------12b14--12-12-12-14-----------------------------------------|
B|-12-12--------------------12b13-12---12b13b12--10--12p10-12--12-12|
G|------------------------------------------------------------------|
D|------------------------------------------------------------------|
A|------------------------------------------------------------------|
E|------------------------------------------------------------------|

E|-12b14-12-12-12----12-14--16b17-----------------------------------|
B|----------------14----------------12-14-15-12b13b12-------12------|
G|-------------------------------14-------------------14-11----11---|
D|----------------------------------------------------------------14|
A|------------------------------------------------------------------|
E|------------------------------------------------------------------|
00:00 / 00:00
Otros videos de esta canción
Repetir
Otros videos de esta canción
Composición de David Lebon
378 vistas
    • ½ Tono
    • A
    • Bb
    • B
    • C
    • Db
    • D
    • Eb
    • E
    • F
    • F#
    • G
    • Ab
  • Agregar a la lista

    0 comentarios

    Ver todos los comentarios
    00:00 / 00:00
    OK