Cifra Club

Frecuencia Modulada

Serú Girán

Cifrado: Principal (guitarra y guitarra eléctrica)
tono: Em
        C
E|--------3---323--323----|
B|--------5---545--545----|
G|--------5---545--545----|
D|--------5---545--545----| x 2
A|----4-5-3---323--323----|
E|------------------------|
        C   B7(#9) Em
E|--------3----x-------0|
B|--------5----3-------0|
G|--------5----2-------0|
D|--------5----1-------2|
A|----4-5-3----2-------2|
E|-------------x-------0|


Punteo de Aznar (gracias al video de Juan Rozas sobre el tema)

Em7 -] [punteo P. Aznar] -] Em7/9
E|--0-------------------------2----|
B|--0-------------------------3----|
G|--0---7-4-------------------0----|
D|--2------7-5-4--------------2----|
A|--2------------5-7----------2----|
E|--0-------------------------0----|

[VERSO]

      Cmaj7         Bm7              Em
El fracaso de un amor que no hizo escuela
       Cmaj7         Bm7         Em
la ignorancia de una vida sin dejar
     Cmaj7         Bm7        Em
El desierto de una calle sin rayuela
        Cmaj7           Bm7         Em
nuestro cielo siempre estuvo màs allà

[INTER]

(Cmaj7 - Bm7 - Em)x4

Para INTER
(tabs para hacer piano de Charlie opcional)

 Cmaj7*  Bm7* Em7/11
E|--7------7-----5----------|
B|--8------7-----0----------|
G|--9------7-----0----------|
D|--x------x----------------|
A|--x------x----------------|
E|--8------7-----0----------|

 Cmaj7*  Bm7*   Em7/11
E|--7------7--5---5------|
B|--8------7------0------|
G|--9------7------0------|
D|--x------x-------------|
A|--x------x-------------|
E|--8------7------0------|

 Cmaj7*  Bm7*   Em7/11 Em*
E|--7------7--5---5-----3---|
B|--8------7------0-----0---|
G|--9------7------0-----0---|
D|--x------x----------------|
A|--x------x----------------|
E|--8------7------0-----0---|

 Cmaj7*  Bm7*   Em7/9
E|--7------x--x---x-----|
B|--8------8--7---7-----|
G|--9------7--7---7-----|
D|--x------7--7---5-----|
A|--x------x--x---7-----|
E|--8------7--7---0-----|

[CORO]

          Am7          D7
Hoy que estàs en penumbras
Bm7                     Em
la radio suena en algùn lugar

(SUBIDA)
E|---------------------------|
B|---------------------------|
G|---------------------------|
D|---------------------------|
A|---------0--2--5-----------|
E|--0-2-3--------------------|

      Am7           D7
Tanta mùsica absurda...
Bm7                      Em
es mejor que comencès a hablar mmm...

Em7 -] [repite punteo de Pedro Aznar] -] Em7/9


SEGUNDA PARTE IGUAL A A  PRIMERA

Si en la mùsica que escuchas ya no hay vida,
si la letra ya no tiene inspiraciòn,
si aunque aumentes el volumen ya no hay fuerza
son los tiempos que estàn huecos de emociòn

Hoy que estàs en la nada
cierras tus sentidos y te das
una larga mirada
Algo dentro tuyo va a sonar!

[INTRO completa], acentos en el Em7/9

Em7 -] [punteo de Pedro Aznar] -] Em7/9 - Em7/9 - Em7/9

[G  O], usando los mismos acordes de VERSO y CORO.

FINAL


E|--------3---323--323----|
B|--------5---545--545----|
G|--------5---545--545----|
D|--------5---545--545----| x 3
A|----4-5-3---323--323----|
E|------------------------|

           Em          A7        Em  Em7/9
E|------------0-------------0-----------0---2--|
B|------------0-------------2-----------0---3--|
G|------------0-------------0-----------0---0--|
D|--------5-4-2--------5-4--2------5-4--2---2--|
A|----4-5-----2-----4-5-----0---4-5-----2---2--|
E|------------0-------------x-----------0---0--|



Franco Levera
Santiago de Chile
30-07-2017,23:53
00:00 / 00:00
Otros videos de esta canción
Repetir
Otros videos de esta canción
Composición de David Lebòn/charly Garcìa
25 vistas
    • ½ Tono
    • Am
    • Bbm
    • Bm
    • Cm
    • C#m
    • Dm
    • Ebm
    • Em
    • Fm
    • F#m
    • Gm
    • G#m
  • Agregar a la lista

    0 comentarios

    Ver todos los comentarios

    ¿Lograste tocar?

    0 Tocaron 0 Aún no

    ¡Graba un video tocando Frecuencia Modulada y envíanoslo!

    00:00 / 00:00
    OK