Cifra Club

Noche de Perros

Serú Girán

Cifrado: Versão 4 (guitarra y guitarra eléctrica)
Selo Cifra Club: esta cifra foi revisada para atender aos critérios oficiais da nossa Equipe de Qualidade.
tono: Em
E|---------------------------------------------------|
B|--------------------------------7^9-7--9^12-9------|
G|-7^10-9----7---7^10-10-9----7----------------------|
D|---------7---------------7-------------------------|
 ^ =ligado

     Em7/9                C9
Esta oscuridad esta noche de perros
     Em7/9                C9
esta soledad que pronto te va a matar
     G              B7/#9      Em7/9    C9 
vas perdido entre las calles que solias andar
     G           B7/#9      Am7   B7/#9       
vas herido como un pájaro en el mar,  sangre.  

[Mim7/9 Do9]x2

(como en la primera estrofa)

Puede ser que estes muy muy lejos de tu casa
justo en el lugar que nació tu corazón
ya te veo entre los autos pidiendo perdón 
mi mirada tiene todo tu dolor, hombre.

(con base)[Mim7/9 Lam7 Do9 Mim7/9] 
nanana nana na na

[Em7/9 Am7]x2       

(como en la primera y segunda estrofa)

Cuando el cielo cae aveces pienso en tu brisa
es muy tarde ya y estoy harto de llorar
no estas solo si es que sabes que muy solo estas
no estas ciego si no ves adonde no hay, nada.

nanana nana na na

(hasta el final): [Mim7/9 Lam7 Do9 Mim7/9]
(con base de bajo):

E|-------------------------------------------------|
B|-------------------------------------------------|
G|------------2--3--------2--0--2--3---------------|
D|--0---2--3--------2--3--------------2--0---------|

 Acordes: 

 Em7/9     C9     G    B7/#9   Am7   
E|--2---------3-------3-------0-------0-----|
B|--3---------3-------0-------3-------1-----|
G|--0---------0-------0-------2-------0-----|
D|--2---------2-------0-------1-------2-----|
A|--2---------3-------2-------2-------0-----|
E|--0---------x-------3-------x-------x-----|
00:00 / 00:00
Otros videos de esta canción
Repetir
Otros videos de esta canción
9 exhibiciones
    • ½ Tono
    • Am
    • Bbm
    • Bm
    • Cm
    • C#m
    • Dm
    • Ebm
    • Em
    • Fm
    • F#m
    • Gm
    • G#m
  • Agregar a la lista

Afinación de cifrado

Afinador online

    00:00 / 00:00
    OK