Cifra Club

Popotitos

Serú Girán

Cifrado: Principal (guitarra y guitarra eléctrica)
tono: E
INTRO:

RIFF 1 (x2)
|0-0-3-4-------------3-4--|
B|-------2-4-----4-2-4-----|
G|----------2-2-0----------|
D|-------------------------|
A|-------------------------|
E|-------------------------|

RIFF 2 (x2)
E|-------------------------|
|0-0-3-4-------------3-4--|
G|-------2-4-----4-2-4-----|
D|----------2-2-0----------|
A|-------------------------|
E|-------------------------|

E7 
Mi amor entero es de mi novia Popotitos,
RIFF 1 E7 
       sus piernas son como un par de cabillitos,
RIFF 1 A7 
       y cuando a la fiesta la llevo a bailar,
RIFF 2 E7                                    RIFF 1
       sus piernas flacas se parecen quebrar.

ESTRIBILLO
B7 
Popotitos no eres un primor,
     A7         B7 
pero bailas que da calor,
          A7         E7 
a mi Popotitos yo le di mi amor.

(CON LOS E SMOS ACORDES DE A  PRIMERA ESTROF )
Cuando hay aire fuerte,¡ella parece volar!,
y en plena lluvia no se va mojar.
Con Popotitos me voy a casar,
de aquí en adelante la voy a delirar.

ESTRIBILLO
                              -G  O-

(IGUAL QUE EN A S ESTROF S ANTERIOD S)
Popotitos baila Rock and Roll,
no la ves ni con la luz del sol.
A mi amada yo le di mi amor,
Apagá las luces que hace mucho calor.
00:00 / 00:00
Otros videos de esta canción
Repetir
Otros videos de esta canción
Composición de Martínez, Williams
57 vistas
    • ½ Tono
    • A
    • Bb
    • B
    • C
    • Db
    • D
    • Eb
    • E
    • F
    • F#
    • G
    • Ab
  • Agregar a la lista

    0 comentarios

    Ver todos los comentarios
    00:00 / 00:00
    OK