Cifra Club

No Sabes Cuanto Te Quiero

Camilo Sesto

Cifrado: Principal (guitarra y guitarra eléctrica)
tono: C
=1ªEstrofa= (Este punteo en Guitarra dura lo que se demora en recitar 
             la 1ª estrofa, y acompaña los versos de la 1ª estrofa.) 

   C     F   Dm    Em  Am      Dm     G          C 
E|--------8------------7----------------------------------------------- 
B|--8----8-10---------6-8----------10-----10-10-8-8-----------------8-- 
G|------9-------10---7------9-----9--10---------------10--9-----9-10--- 
D|------------------------------10----------------------------10------- 
A|--------------------------------------------------------------------- 
E|--------------------------------------------------------------------- 

  ...ESTÁ AMANECIENDO, QUE PAZ REFLEJA TU CARA CUANDO DUERMES, 

  YA ES CASI LA HORA DE EMPEZAR UN NUEVO DÍA Y LA VERDAD... 

  RECONOZCO QUE NO ME GUSTA NADA MADRUGAR... 

  QUIZÁS SEA ESA LA RAZÓN POR LA QUE TENGO TAN MAL DESPERTAR... 

  TE AGRADEZCO TANTO QUE CADA MAÑANA ME REGALES TU PRIMERA MIRADA, 

  SONRISA Y QUE ME DIGAS... BUENOS DÍAS MI AMOR, 


=2ªEstrofa= (Este punteo en Guitarra dura lo que se demora en recitar 
             la 2ª estrofa, y acompaña los versos de la 2ª estrofa.) 

   C     F   Dm    Em  Am      Dm     G          C 
E|--------8------------7----------------------------------------------- 
B|--8----8-10---------6-8----------10-----10-10-8-8-----------------8-- 
G|------9-------10---7------9-----9--10---------------10--9-----9-10--- 
D|------------------------------10----------------------------10------- 
A|--------------------------------------------------------------------- 
E|--------------------------------------------------------------------- 

  ME ENCANTA MIRARTE CUANDO ME PREPARAS EL CAFÉ... 

  TE PREOCUPAS TANTO DE LO MÍO QUE SE TE OLVIDA... 

  Y NO TE IMPORTA QUE EL TUYO SE ESTÉ QUEDANDO FRÍO... 

  SIEMPRE PIENSAS ANTES EN MÍ... QUE EN TI... SIEMPRE... 

  Y NO SABES... CUÁNTO TE QUIERO... 


=3ªEstrofa= (Este punteo en Guitarra dura lo que se demora en recitar 
             la 3ª estrofa, y acompaña los versos de la 3ª estrofa.) 

   C     F   Dm    Em  Am      Dm     G          C 
E|--------8------------7------------------------------8-10-- 
B|--8----8-10---------6-8----------10-----10-10-8-8--------- 
G|------9-------10---7------9-----9--10--------------------- 
D|------------------------------10-------------------------- 
A|---------------------------------------------------------- 
E|---------------------------------------------------------- 

  NECESITO ESE BESO, ESE BESO TUYO DE AYER... DE HOY, DE SIEMPRE, 

  ESE BESO QUE ME DAS... CUANDO ME MARCHO Y CUANDO REGRESO... 

  CUANDO LLEGO A CASA TARDE, CANSADO Y CON PROBLEMAS, 

  Y TÚ ME RECIBES CON LOS BRAZOS ABIERTOS... ME AYUDAS, ME OYES... 

  Y SOBRE TODO ME ESCUCHAS.... Y ESO ALIVIA MIS PENAS... 


=4ªEstrofa= (Este punteo en Guitarra dura lo que se demora en recitar 
             la 4ª estrofa, y acompaña los versos de la 4ª estrofa.) 

   C         F  G        C    C         F   G      G 
E|--8---8-10-12-----7---7-8-10------8---8-10-12----------7---10--- 
B|-------------10-------------8----------------10----8------------ 
G|---------------------------------------------------------------- 
D|---------------------------------------------------------------- 
A|---------------------------------------------------------------- 
E|---------------------------------------------------------------- 

  HOY DESPERTÉ ABRAZADO A TI... ME GUSTÓ TANTO MIRARTE, 

  TENÍAS LOS OJOS CERRADOS A LA LUZ, Y LA MENTE ABIERTA A LOS SUEÑOS, 

  TU CUERPO... COMPLETAMENTE DESNUDO, MIS MANOS PARECÍAN TENER ALAS... 

  SE ME ESCAPABAN, VOLABAN HACIA TI, TE DESEABAN... 

  Y TE ACARICIE DE LOS PIES A LA CABEZA, UNA Y OTRA VEZ... 


=5ªEstrofa= (Este punteo en Guitarra dura lo que se demora en recitar 
             la 5ª estrofa, y acompaña los versos de la 5ª estrofa.) 

   C     F   Dm    Em  Am      Dm      G         C 
E|--------8------------7------------------------------------------------ 
B|--8----8-10---------6-8----------10------10-10-8-8-----------------8-- 
G|------9-------10---7------9-----9--10----------------10--9-----9-10--- 
D|------------------------------10-----------------------------10------- 
A|---------------------------------------------------------------------- 
E|---------------------------------------------------------------------- 

  Y NO SABES... CUÁNTO TE QUIERO... 

  HAY VECES QUE NO NOS HACEN FALTA NI LAS PALABRAS PARA ENTENDERNOS 

  Y NOS BASTA CON MIRARNOS... Y SI POR ALGUNA TONTERÍA DISCUTIMOS, 

  ACABAMOS ENCONTRÁNDONOS... DONDE MÁS CERCA NOS SENTIMOS... 

  MÁS UNIDOS... NUESTRA CAMA... 


=6ªEstrofa= (Este punteo en Guitarra dura lo que se demora en recitar 
             la 6ª estrofa, y acompaña los versos de la 6ª estrofa.) 

   C     F   Dm    Em  Am      Dm      G         C 
E|--------8------------7------------------------------------------------ 
B|--8----8-10---------6-8----------10------10-10-8-8-----------------8-- 
G|------9-------10---7------9-----9--10----------------10--9-----9-10--- 
D|------------------------------10-----------------------------10------- 
A|---------------------------------------------------------------------- 
E|---------------------------------------------------------------------- 

  SI NOS VA BIEN O MAL, YO A TU LADO Y TU AL MIO... JUNTOS, 

  FUNDIDOS COMO ARENA Y CAL, COMO AGUA DEL MISMO RÍO... 

  HAY QUIEN NO ENTIENDE ESTE AMOR, HAY QUIEN NOS DA LA ESPALDA... 

  ¿QUÉ MÁS NOS DA?, SI TÚ Y YO SABEMOS, QUE CUANDO NOS CONOCIMOS, 

  DECIDIMOS ECHAR EL ANCLA... 


=7ªEstrofa= (Este punteo en Guitarra dura lo que se demora en recitar 
             la 7ª estrofa, y acompaña los versos de la 7ª estrofa.) 

   C         F  G        C    C         F   G      G 
E|--8---8-10-12-----7---7-8-10------8---8-10-12----------7---10--- 
B|-------------10-------------8----------------10----8------------ 
G|---------------------------------------------------------------- 
D|---------------------------------------------------------------- 
A|---------------------------------------------------------------- 
E|---------------------------------------------------------------- 

  TE HE SENTIDO TANTAS VECES CUANDO A MEDIA NOCHE TE LEVANTAS, 

  ME MIRAS... Y ME MIMAS COMO SI AÚN FUERA UN CRÍO... 

  PARECES ADIVINAR QUE ESTOY SINTIENDO FRÍO... Y ME ECHAS OTRA MANTA, 

  Y ME GUSTA COMO ME TRATAS... Y ME GUSTA COMO ME AMAS... 

  ERES EL MEJOR REGALO QUE ME HA DADO LA VIDA... 


=Estrofa Final= (Este punteo en Guitarra, dura lo que se demora 
                 en recitar esta estrofa, y acompaña sus versos.) 

   C     F   Dm    Em  Am      Dm      G         C 
E|--------8------------7------------------------------------------------ 
B|--8----8-10---------6-8----------10------10-10-8-8-----------------8-- 
G|------9-------10---7------9-----9--10----------------10--9-----9-10--- 
D|------------------------------10-----------------------------10------- 
A|---------------------------------------------------------------------- 
E|---------------------------------------------------------------------- 

  NO SABES... CUÁNTO TE QUIERO... 

  COMPARTES TODAS MI COSAS, TODO... LO QUE SE PUEDE SENTIR... 

  CUANDO EN VERDAD SE AMA, EN ESOS MOMENTOS DE ENTREGA, TUYA Y MIA, 

  DONDE SÓLO HAY UN TESTIGO QUE NOS MIRA... 

  CALLA Y GUARDA NUESTRA INTIMIDAD... NUESTRA CAMA... 


=Final=  (Punteo que termina la canción) 
   C         F  G        C    C         F   G      G 
E|--8---8-10-12-----7---7-8-10------8---8-10-12----------7---10--- 
B|-------------10-------------8----------------10----8------------ 
G|---------------------------------------------------------------- 
D|---------------------------------------------------------------- 
A|---------------------------------------------------------------- 
E|---------------------------------------------------------------- 

   C         F  G        C    C         F   G      G 
E|--8---8-10-12-----7---7-8-10------8---8-10-12----------7---10--- 
B|-------------10-------------8----------------10----8------------ 
G|---------------------------------------------------------------- 
D|---------------------------------------------------------------- 
A|---------------------------------------------------------------- 
E|---------------------------------------------------------------- 
=====================
Composición de Camilo Blanes
Colaboración y revisión:
  • ROBERTO CARVALHO
434 vistas
    • ½ Tono
    • A
    • Bb
    • B
    • C
    • Db
    • D
    • Eb
    • E
    • F
    • F#
    • G
    • Ab
  • Agregar a la lista

    0 comentarios

    Ver todos los comentarios

    ¿Lograste tocar?

    0 Tocaron 0 Aún no

    ¡Graba un video tocando No Sabes Cuanto Te Quiero y envíanoslo!

    00:00 / 00:00
    Outros vídeos desta música
    Repetir Calidad Automático
    Outros vídeos desta música
    00:00 / 00:00
    Automático
    OK