Cifra Club

I Like To Move It

Shaggy

Cifrado: Principal (guitarra y guitarra eléctrica)
Selo Cifra Club: esta cifra foi revisada para atender aos critérios oficiais da nossa Equipe de Qualidade.
tono: Eb
E|-------------|---------------|
B|-------------|---------------|
G|-------------|---------------|
D|-------------|-5-1-1-0-3-0-5-|
A|-3---3---3--3|---------------|
E|-------------|---------------|


E|-------------|---------------|
B|-------------|---------------|
G|-------------|---------------|
D|-------------|-5-1-1-0-3-0-5-|
A|-3---3---3--3|---------------|
E|-------------|---------------|
Otros videos de esta canción
    3 exhibiciones
      • ½ Tono
      • A
      • Bb
      • B
      • C
      • Db
      • D
      • Eb
      • E
      • F
      • F#
      • G
      • Ab
    • Agregar a la lista

    Afinação da cifra

    Afinador online

      Ops (: Contenido disponible solo en portugués.
      OK