Cifra Club

Why

Shaggy

Cifrado: Principal (guitarra y guitarra eléctrica)
Selo Cifra Club: esta cifra foi revisada para atender aos critérios oficiais da nossa Equipe de Qualidade.
tono: Dm
          bend a halfstep                     bend a wholestep                          
E|-------------------------------|---------------------------------------|
B|--11b----11br-11b-11br-p9-14---|-----14b---14br-14b-14br-p12-----------|
G|-------------------------------|----------------------------13---------|
D|-------------------------------|---------------------------------------|
A|-------------------------------|---------------------------------------|
E|-------------------------------|---------------------------------------|
                                                                           
                                                                           
Basspart:                                                                           
                                                                           
E|-----------------------------------------------------------------------|
B|-----------------------------------------------------------------------|
G|-----------------------------------------------------------------------|
D|-----------------------------------------------------------------------|
A|-----------------------------------------------------------------------|
E|---------4---4-4-----6-6---6-----7---7-7-----0-0---0-------------------|
                                                                           

Basicly, the whole song consists of these two parts and percussion. However,
 if you want to play chords over it, these are the way to go. Nevertheless, 
 there is a lot of room for improvisation, especially on the last C-Chord.

       Gm          Dm           Bb          C
                                                                           
E|---4-----------6------------7-----------9------------------------------|
B|---4-----------7------------7-----------9------------------------------|
G|---4-----------8------------8-----------10-----------------------------|
D|---6-----------8------------9-----------11-----------------------------|
A|---6-----------6------------9-----------11-----------------------------|
E|---4-----------6------------7-----------9------------------------------|
                                                                           
                                                                           
Have fun playing!

Legemd:

b: bend
br: bend release                                                                           
p: pull-off
Otros videos de esta canción
    14 exhibiciones
      • ½ Tono
      • Am
      • Bbm
      • Bm
      • Cm
      • C#m
      • Dm
      • Ebm
      • Em
      • Fm
      • F#m
      • Gm
      • G#m
    • Agregar a la lista

    Afinação da cifra

    Afinador online

      Ops (: Contenido disponible solo en portugués.
      OK