Cifra Club

Fairy Tale

Shaman

Cifrado: Principal (guitarra y guitarra eléctrica)
Selo Cifra Club: esta cifra foi revisada para atender aos critérios oficiais da nossa Equipe de Qualidade.
tono: Am
Jesus, salvator mundi
Tue famuli subveni
Quos pretioso sanguine
Quos pretioso sanguine
Redemisti

[Intro] Am  C  G  Am
        Am  C  G  Am
        D  Am  G  F  D
        D  F  G  

[Primeira Parte] 

 Am    C         G            Am
Fairy lady who stands on the walls
 Am       C        G       Am
Life is short and wait is long
      D      Am   G            F   D
The stars, away, dim with the dawn
       F         G            Am
Fairy lady who stands on the walls
 C            G       Am
Your tale has only begun
    Am         C        G      Am
It comes from far, the Nowhereland
     D        Am       G           F   D
The wind is blowing a sound well known
       F          G            Am
Fairy lady, your love is long gone

[Refrão] 1]

Am  G      Em 
Oh darling
         Am                  G  Em
Hear my soul and heed my cry
Am               G     Em 
   Cause all my crying    
             F            D
May flood a river in my heart

C  G  Bb      F
Oh,  life is good
C  G  Bb      F
Oh,  life is good
C  G  Bb      F
Oh,  life is good
    Ab          Bb
As good as you wish!

[Segunda Parte] 

  Am    C         G          Am
Pretty lady, the horses are back
          C       G    Am
Bringing joy and happiness
    D         Am   
But all of a sudden 
     G          F D
The horses are gone
                 F    
It was only the sound 
         G          Am
Of your heartbeat alone!

[Refrão] 2]

Am  G      Em 
Oh darling
         Am                  G  Em
Hear my soul and heed my cry
Am                G    Em 
   Cause all my crying   
             F             D
May flood an ocean in my heart

C  G  Bb      F
Oh,  life is good
C  G  Bb      F
Oh,  life is good
C  G  Bb      F
Oh,  life is good
    Ab        Bb
As good as a kiss!

[Solo] C  G  Bb  F
       C  G  Bb  F
       C  G  Bb  F
       Ab  Bb  Cm  Bb/D

E|-------------------8----------------------|
B|-8--8-10-8--8-10-8---8-10-8-6-------------|
G|------------------------------9-7-5-------|
D|------------------------------------------|
A|------------------------------------------|
E|------------------------------------------|

E|-------------------12-10-8----------------|
B|-8--8-10-8--8-10-8---------10-------------|
G|------------------------------------------|
D|------------------------------------------|
A|------------------------------------------|
E|------------------------------------------|

E|-------------------8----------------------|
B|-8--8-10-8--8-10-8---8-10-8-6-------------|
G|------------------------------9-7-5-------|
D|------------------------------------------|
A|------------------------------------------|
E|------------------------------------------|

E|------------------------------------------|
B|-4-3-1-6-4-3-8-6-9-11-13-15-16------------|
G|------------------------------------------|
D|------------------------------------------|
A|------------------------------------------|
E|------------------------------------------|

[Refrão] 3]

Ebm        Db     Bbm 
    Oh my darling
       Ebm                 Db  Bbm
Now I cannot halt my cries
Ebm                 Db       Bbm
    My tears have drowned me
         B          Bb
And I refuse to realise

Ebm               Db      Bbm 
    What's left around me
               Ebm                   Db  Bbm
It's all so strange, it's all so dark
Ebm           Db       Bbm
    I'm all alone here
             B                 Db
To mend the pieces of my heart

[Solo] F# C# E B 
       F# C# E B 
       F# C# E B 
       E D 
       E D 

E|----------------------12--12p11-----------|
B|--12----------------------------14-12-----|
G|-------11--11/13-13~----------------------|
D|11--11------------------------------------|
A|------------------------------------------|
E|------------------------------------------|

E|---------------------12-14-14b16-14-------|
B|--12--------------------------------------|
G|-------11--11/13-13~----------------------|
D|11--11------------------------------------|
A|------------------------------------------|
E|------------------------------------------|
 
E|-19-19p18----------18-19-19p18----------18|
B|----------19----19-------------19----19---|
G|-------------18-------------------18------|
D|------------------------------------------|
A|------------------------------------------|
E|------------------------------------------|

E|17-17p16----------------------------------|
B|---------17-------------------------------|
G|------------16-14-13-8--------------------|
D|------------------------------------------|
A|------------------------------------------|
E|------------------------------------------|

E|------------------------------------------|
B|-10b12--b12r10-9-10p9---------------------|
G|----------------------9~/14---------------|
D|------------------------------------------|
A|------------------------------------------|
E|------------------------------------------|

E|-------14-16-17-16-14---------------------|
B|----17----------------17-17~--------------|
G|-14---------------------------------------|
D|------------------------------------------|
A|------------------------------------------|
E|------------------------------------------|

[Terceira Parte] 

 Am     C          G          Am
Little lady, your tale has an end
          C            G        Am
For your love to the skies was sent
      D            Am   
He's turned into sparks 
       G              F   D
That shine with the stars

        F            G           F
And by night he will always be there
         G        F
For his lady to stare
          G          Am
And thus he's never died
Otros videos de esta canción
    409.652 exhibiciones
    • Simplificar cifrado
      • ½ Tono
      • Am
      • Bbm
      • Bm
      • Cm
      • C#m
      • Dm
      • Ebm
      • Em
      • Fm
      • F#m
      • Gm
      • G#m
    • Agregar a la lista

    Afinación de cifrado

    Afinador online

      OK