Notificações Amigos pendentes

      Shania Twain

      Juanita

      68 reproducciones
      Tono: A#
      (intro) Gm Cm D# F Gm
      
      Gm
      She is the restless river
       Cm
      running through my veins
           D#
      She rides without the reins
       F               Gm (lick1)
      her name's Juanita
      
      She lives in the heart of every
       Cm
      woman in the world
                  D#                F
      Within the reach of every girl
                    Gm (lick 2)
      who wants to meet her
      
      (She's gonna be ridin' through)
      Her name's Juanita
                        Cm
      (She's gonna be ridiin' free) She's ridin' free
                        D#
      (She's gonna be inside of you, gonna be
                           F
      inside of me) She's inside of you
             Gm (lick 3)
      and inside of me, yeah
      
      (refrão)
        Gm                      D/F#
      Oh,go with her flow with her
       Gm                        D/F#
      Dream with her scream with her
      Cm                    D#
      Let her take over, or just get to know her
      Bb                    F (lick 4)
      Be everything you can be
      Gm                          D/F#
      If you can find her and free her
      (lick 5)                    Gm
      Juanita will unchain your heart
      
      Gm
      When someone tries to take
                Cm
      away the freedom of your choice
                D#           F
      To take away your voice
                        Gm (lick 6)
      that's when you need her
      
      She's there if you dare to give
            Cm
      your broken wings a try
                  D#              F
      C'mon and take a leap and fly,
                   Gm (lick 2)
      and you can be her
                       Gm
      (She's gonna be ridin' through) Oh, Juanita
                       Cm
      (She's gonna be ridin' free) Ridin' free
                         D#
      (She's gonna be a part of you, gonna be a
                           F                  Gm
      part of me) She's a part of you and a part
                (lick 7)
      of me, yeah
         Gm                     D/F#
      Oh,go with her flow with her
         Gm                      D/F#
      Dream with her scream with her
         Cm                 D#
      Let her take over, or just get to know her
      Bb                    F(lick 4)
      Be everything you can be
      Gm                          D/F#
      If you can find her and free her
      (lick 5)                    Gm
      Juanita will unchain your heart
      (Volta ao refrão)
      
      Lick 1
      
      E-----------------
      B----4------------
      G-5-7-7-----------
      D-----------------
      A-----------------
      E-----------------
      
      
      Lick 2 
      
      E--1-1-5-3--------
      B-----------------
      G-7-7-5-----------
      D-----------------
      A-----------------
      E-----------------
      
      
      Lick 3 
      
      E---------------------------------
      B-8------------------------------
      G--8-8-7----7h8p7-----------
      D-----10-8-----8-7-5---------
      A---------------------------------
      E---------------------------------
      
      
      Lick 4 
      
      E-----------------
      B-----------------
      G-----------------
      D-----------0------
      A------0-1-3---------
      E-1-1-3----------------
      
      
      Lick 5 
      
      E------------------------------------------------------------
      B------------------------------------------------------------
      G-7p8-7---7----------------------------------------------
      D-0----10-0--8/10-10-10-8p10-8-7-7p8-5-------
      A------------------------------------------------------------
      E------------------------------------------------------------
      
      
      Lick 6 
      
      E---------------------
      B---------------------
      G-------7-8-7------
      D-7-8-10-----------
      A---------------------
      E---------------------
      
      
      Lick 7
      
      E-10-10-10-10-8-8-8-6-5-3---
      B-------------------------------------
      G-10-10-10-10-8-8-8-7-5-3--
      D-------------------------------------
      A-------------------------------------
      E-------------------------------------
      
      
        Composición: César Menotti / Robert John Mutt LangeColaboración y revision:
        • Diego

        Comentarios 0

        140 .
        140 cancelar

        ¿conseguiste tocar?

        covers

        ¡Grave un vídeo tocando Juanita y envie para nosotros!

        Ex.: http://www.youtube.com/watch?v=0IvSvIwGdwk
        ver cover de otras canciones »
        0:00 / 0:00

        Capitulos

          1 versão de guitarra dificuldad reproducciones contribuición y correción
          1 versão de guitarra eléctrica dificuldad reproducciones contribuición y correción
          1 versão de cavaco dificuldad reproducciones contribuición y correción
          1 versão de teclado dificuldad reproducciones contribuición y correción
          play/pausefechar subir/bajar velocidad
          6ª cuerda E5ª cuerda A4ª cuerda D3ª cuerda G2ª cuerda B1ª cuerda E
            acordes
            publicidad
            cerrar
            ok