Cifra Club

Aprenda

If I Can't Have You

Shawn Mendes

Tablatura: Principal (guitarra)
Tom: D
[Refrão]

G             F#m  Em               F#m  G
I can't write one song that's not about you
            F#m    Em             F#m  G
Can't drink    without thinking about you
       F#m  Em           F#m
Is it too  late to tell you that
G                 F#m          Em
Everything means nothing if I can't have you

[Primeira Parte]

   G      F#m    Bm     Em           F#m 
E|------------------------------------------|
B|-------------------3----------------------|
G|-----4------2-------------0-----0------2--|
D|-----------------4------------------------|
A|---5------4----2--------2-----2------4----|
E|-3------2-------------0-----0------2------|

   G        F#m    Bm     Em           F#m   
E|------------------------------------------|
B|---------------------3--------------------|
G|-----2h4------2-------------0-----0------2|
D|---0---------------4----------------------|
A|------------4----2--------2-----2------4--|
E|-3--------2-------------0-----0------2----|

   G      F#m    Bm     Em           F#m 
E|------------------------------------------|
B|-------------------3----------------------|
G|-----4------2-------------0-----0------2--|
D|-----------------4------------------------|
A|---5------4----2--------2-----2------4----|
E|-3------2-------------0-----0------2------|

   G        F#m    Bm     G   F#m  Em  
E|------------------------------------------|
B|---------------------3--------------------|
G|-----2h4------2---------4---2----0--------|
D|---0---------------4----5---4----2--------|
A|------------4----2------5---4----2--------|
E|-3--------2-------------3---2----0--------|

G                       F#m      Bm
  I'm in Toronto and I got this view
       Em                          F#m
But I might as well be in a hotel room, yeah
G                               F#m   Bm
  It doesn't matter 'cause I'm so consumed
         Em                     Em         F#m
Spending all my nights reading texts from you

[Pré-Refrão]

G                F#m        Bm
Oh, I'm good at keeping my distance
    Em                  Em          F#m
I know that you're the feeling I'm missing
 G               F#m       Bm
You know that I hate to admit it
    G                 F#m          Em
But everything means nothing if I can't have you

[Refrão]

G             F#m  Em               F#m  G
I can't write one song that's not about you
            F#m    Em             F#m  G
Can't drink    without thinking about you
       F#m  Em           F#m
Is it too  late to tell you that
G                 F#m          Em
Everything means nothing if I can't have you

G             F#m  Em               F#m  G
I can't write one song that's not about you
            F#m    Em             F#m  G
Can't drink    without thinking about you
       F#m  Em           F#m
Is it too  late to tell you that
G                 F#m          Em
Everything means nothing if I can't have you

[Segunda Parte]

   G      F#m    Bm     Em           F#m 
E|------------------------------------------|
B|-------------------3----------------------|
G|-----4------2-------------0-----0------2--|
D|-----------------4------------------------|
A|---5------4----2--------2-----2------4----|
E|-3------2-------------0-----0------2------|

   G        F#m    Bm     Em           F#m   
E|------------------------------------------|
B|---------------------3--------------------|
G|-----2h4------2-------------0-----0------2|
D|---0---------------4----------------------|
A|------------4----2--------2-----2------4--|
E|-3--------2-------------0-----0------2----|

   G      F#m    Bm     Em           F#m 
E|------------------------------------------|
B|-------------------3----------------------|
G|-----4------2-------------0-----0------2--|
D|-----------------4------------------------|
A|---5------4----2--------2-----2------4----|
E|-3------2-------------0-----0------2------|

   G        F#m    Bm     G   F#m  Em  
E|------------------------------------------|
B|---------------------3--------------------|
G|-----2h4------2---------4---2----0--------|
D|---0---------------4----5---4----2--------|
A|------------4----2------5---4----2--------|
E|-3--------2-------------3---2----0--------|

G                       F#m     Bm
  I'm so sorry that my timing's off
       Em                                 F#m
But I can't move on if we're still gonna talk
G                        F#m      Bm
  Is it wrong for me to not want half?
       Em                     Em      F#m
I want all of you, all the strings attached

[Pré-Refrão]

G                F#m        Bm
Oh, I'm good at keeping my distance
    Em                  Em          F#m
I know that you're the feeling I'm missing
 G               F#m       Bm
You know that I hate to admit it
    G                 F#m          Em
But everything means nothing if I can't have you

[Refrão]

G             F#m  Em               F#m  G
I can't write one song that's not about you
            F#m    Em             F#m  G
Can't drink    without thinking about you
       F#m  Em           F#m
Is it too  late to tell you that
G                 F#m          Em
Everything means nothing if I can't have you

G             F#m  Em               F#m  G
I can't write one song that's not about you
            F#m    Em             F#m  G
Can't drink    without thinking about you
       F#m  Em           F#m
Is it too  late to tell you that
G                 F#m          Em
Everything means nothing if I can't have you

[Ponte]

   G      F#m    Bm     Em           F#m 
E|------------------------------------------|
B|-------------------3----------------------|
G|-----4------2-------------0-----0------2--|
D|-----------------4------------------------|
A|---5------4----2--------2-----2------4----|
E|-3------2-------------0-----0------2------|

   G        F#m    Bm     Em           F#m   
E|------------------------------------------|
B|---------------------3--------------------|
G|-----2h4------2-------------0-----0------2|
D|---0---------------4----------------------|
A|------------4----2--------2-----2------4--|
E|-3--------2-------------0-----0------2----|

   G      F#m    Bm     Em           F#m 
E|------------------------------------------|
B|-------------------3----------------------|
G|-----4------2-------------0-----0------2--|
D|-----------------4------------------------|
A|---5------4----2--------2-----2------4----|
E|-3------2-------------0-----0------2------|

   G        F#m    Bm     G   F#m  Em  
E|------------------------------------------|
B|---------------------3--------------------|
G|-----2h4------2---------4---2----0--------|
D|---0---------------4----5---4----2--------|
A|------------4----2------5---4----2--------|
E|-3--------2-------------3---2----0--------|

G                       F#m            Bm
  I'm trying to move on,    forget you,   but I hold on
Em                                          F#m
Everything means nothing, everything means nothing, babe
G                       F#m            Bm
  I'm trying to move on,    forget you,   but I hold on
G                 F#m          Em
Everything means nothing if I can't have you

[Refrão]

G             F#m  Em               F#m  G
I can't write one song that's not about you
            F#m    Em             F#m  G
Can't drink    without thinking about you
       F#m  Em           F#m
Is it too  late to tell you that
G                 F#m          Em
Everything means nothing if I can't have you

G             F#m  Em               F#m  G
I can't write one song that's not about you
            F#m    Em             F#m  G
Can't drink    without thinking about you
       F#m  Em           F#m
Is it too  late to tell you that
G                 F#m          Em
Everything means nothing if I can't have you
Compositor Nate Mercereau / Scott Harris / Shawn Mendes / Teddy Geiger
Colaboración y revision:
  • Thiago Almeida
  • Bianca M
545 reproducciones
    • ½ Tom
    • A
    • Bb
    • B
    • C
    • Db
    • D
    • Eb
    • E
    • F
    • F#
    • G
    • Ab
  • Adicionar à lista

    0 comentarios

    Mostrar mais comentários

    ¿Conseguiste tocar?

    2 Tocaron 1 Ainda não

    Grave um vídeo tocando If I Can't Have You e mande pra gente!

    00:00 / 00:00
    outros vídeos desta música
    repetir qualidade Automático
    Outros vídeos desta música
    00:00 / 00:00
    Automático
    OK