Cifra Club

Aprenda

Like To Be You

Shawn Mendes

Tablatura: Principal (guitarra)
Tom: Bm
[Intro]
    Bm       A       D                Bm      A        D
E|----------------|----------------|----------------|----------------|
B|----------------|----7-------7---|----------------|----7-------7---|
G|----7-------6---|--7---7---7---7-|----7-------6---|--7---7---7---7-|
D|--9---9---7---7-|----------------|--9---9---7---7-|----------------|
A|----------------|5-------5-------|----------------|5-------5-------|
E|7-------5-------|----------------|7-------5-------|----------------|

 Bm            A   D
Don't cry, or do whatever makes you comfortable
Bm          A
I’m tired, too
         D                    Bm              A
There's nothin' left to say, let’s call the truce
       D                         G   A       D
'Cause I don't really wanna go to bed like this

Bm A       D
   I'm so sorry
Bm       A            D
   That we're still stuck in the middle
Bm A       D
   I'm so sorry
G                 A        D
   'Cause in the moment I

   Bm                   A          D
I don't know what it’s like to be you
   Bm                   A             D
I don’t know what it's like but I’m dying to
   Bm             A             D
If I could put myself in your shoes
     G                   A          Bm
Then I'd know what it's like to be you

       Bm          A
Can I kiss you or not?
       D                             Bm           A
'Cause I’m not really sure right now of what you want
     D                   Bm          A
Are you still mad at me? I'm hopin' not
        D                        G
'Cause maybe we could go to the movies
            A                Bm
I know that always cheers us up, hey

Bm A       D
   I'm so sorry
Bm       A            D
   That we're still stuck in the middle
Bm A       D
   I'm so sorry
G                 A        D
   'Cause in the moment I

   Bm                   A          D
I don't know what it’s like to be you
   Bm                   A             D
I don’t know what it's like but I’m dying to
   Bm             A             D
If I could put myself in your shoes
     G                   A          Bm
Then I'd know what it's like to be you

 Bm               A            D
Tell me what's inside of your head
    Bm              A           D
No matter what you say I won't love you less
    Bm           A           D
And I'd be lying if I said that I do
   G                    A          Bm
I don't know what it's like to be you
   G                    A          Bm
I don't know what it's like to be you


[Solo]

         Bm    A     D        Bm     A    D       Bm    A     D       G      A     Bm
E|---------------------------------------------------------------------------------------------------|
B|-----------------------------7------------7p5h7--5--8---7---------------------------------5--------|
G|-7\6/7----------------7\6/7-----/9-\7-7-----------------------9\7----------------------------7-----|
D|------------9\7--7----------------------------------------7------------9-------------4/7-----------|
A|------------------------------------------------------------------7--9---7---5-5-------------------|
E|---------------------------------------------------------------------------------------------------|

Bm A      D
   I get worried
Bm A        D
   I might lose you a little
Bm A      D
   Every time we
   G             A              Bm
   Every time we argue and get caught up in the moment

   Bm                   A          D
I don't know what it’s like to be you
   Bm                   A             D
I don’t know what it's like but I’m dying to
   Bm             A             D
If I could put myself in your shoes
     G                   A          Bm
Then I'd know what it's like to be you

    Bm               A            D
So tell me what's inside of your head
    Bm              A           D
No matter what you say I won't love you less
            Bm         A           D
And I'd be lying if I said that I do
   G                    A          Bm
I don't know what it's like to be you
   G                    A          Bm
I don't know what it's like to be you
   G                    A    Bm
I don't know what it's like
Compositor Julia Michaels / Scott Harris / Shawn Mendes
Colaboración y revision:
  • Getúlio Vasconcelos
377 reproducciones
    • ½ Tom
    • Am
    • Bbm
    • Bm
    • Cm
    • C#m
    • Dm
    • Ebm
    • Em
    • Fm
    • F#m
    • Gm
    • G#m
  • Adicionar à lista

    0 comentarios

    Mostrar mais comentários

    ¿Conseguiste tocar?

    3 Tocaron 2 Ainda não

    Grave um vídeo tocando Like To Be You e mande pra gente!

    00:00 / 00:00
    outros vídeos desta música
    repetir qualidade Automático
    Outros vídeos desta música
    00:00 / 00:00
    Automático
    OK