Cifra Club

Strings

Shawn Mendes

Chords: Principal (acoustic and electric guitars)
tone: B (chord shape for key of G) Capo on fret 4
Intro/Verse

     Em                    A7                    E5+                   Em
E|- - -0--0-0-0-0-0- - - - - - -0-0-0-0-0-0- - - - - -0-0-0-0-0-0- - - - -0--0-0-0-0-0- - -|
B|- - -0--0-0-0-0-0- - - -0h2- -2-2-2-2-2-2- - -0h1- -1-1-1-1-1-1- - - - -0--0-0-0-0-0- - -|
G|- - -0--0-0-0-0-0- - - -0- - -0-0-0-0-0-0- - -0- - -0-0-0-0-0-0- - - - -0--0-0-0-0-0- - -|
D|-0h2----2-2-0h2-2-2- - -0h2- -2-2-2-2-2-2- - -0h2- -2-2-2-2-2-2- - -0h2----2-2-0h2-2-2- -|
A|-0h2----2-2-0h2-2-2- - - - - - - - - - - - - - - - - - - - - - - - -0h2----2-2-0h2-2-2- -|
E|- - - - - - - - - - - - - - - - - - - - - - - - - - - - - -  - - - - - - - - - - - - - - -|

Met this girl when I was three or so
We were holding hands standing toe to toe
And it felt like an eternity
Said it felt like an eternity
'Cause I knew back then we were more than friends
Two sides of the story in our defense
And I'll say it once and I'll say it again
It'll only end up hurting me

Years flew by, was less than twelve
Long division, I need your help
Can you come on over and work with me?
Any time you like and make it work for me
Cause I knew back when if I get you close
When the times is right maybe I'll propose
Baby climb up, show me the ropes

                G                 E5+
Darling, I want all the strings attached
                    G                D D4 D
I love it when you look at me like that
                     G                   E5+
And you're the only girl that brings me back
                     G                 D      D4 D
'Cause, baby, I want all the strings attached
          G             E5+
It's like always and forever
         G              D  D4 D
I won't let the moment pass
              G               E5+
And when I'm with you I feel better
       G
I want all the strings
D
All the strings attached

     Em                    A7                    E5+                   Em
E|- - -0--0-0-0-0-0- - - - - - -0-0-0-0-0-0- - - - - -0-0-0-0-0-0- - - - -0--0-0-0-0-0- - -|
B|- - -0--0-0-0-0-0- - - -0h2- -2-2-2-2-2-2- - -0h1- -1-1-1-1-1-1- - - - -0--0-0-0-0-0- - -|
G|- - -0--0-0-0-0-0- - - -0- - -0-0-0-0-0-0- - -0- - -0-0-0-0-0-0- - - - -0--0-0-0-0-0- - -|
D|-0h2----2-2-0h2-2-2- - -0h2- -2-2-2-2-2-2- - -0h2- -2-2-2-2-2-2- - -0h2----2-2-0h2-2-2- -|
A|-0h2----2-2-0h2-2-2- - - - - - - - - - - - - - - - - - - - - - - - -0h2----2-2-0h2-2-2- -|
E|- - - - - - - - - - - - - - - - - - - - - - - - - - - - - -  - - - - - - - - - - - - - - -|

All the strings attached girl
All the strings attached girl

So come on girl let me hold your hand
Let's go get lost, leave without a plane
And I know you got the world to see
But you know you mean the world to me
And I know right now you got second thoughts
Do whatever it takes, babe, whatever the cost, yeah

You know me, not the type of guy
To sneak around, to do the time
But you must have me hypnotised
I'm dead-dead-dead down to be by your side
Every night

                G                 E5+
Darling, I want all the strings attached
                    G                D D4 D
I love it when you look at me like that
                     G                   E5+
And you're the only girl that brings me back
                     G                 D      D4 D
'Cause, baby, I want all the strings attached
          G             E5+
It's like always and forever
         G              D  D4 D
I won't let the moment pass
              G               E5+
And when I'm with you I feel better
       G               D
I want all the strings

               C9        G    Em7       D/F#
And baby when you fall down, I'll fall too
        C9       G         Em7           D/F#
And if you get lost, then I'll get lost with you
              C9           G
And when the waves crash down
      Em7        D/F#         C9
Then baby I won't move, cause I

     G                 E5+
Need all the strings attached
                    G               D   D4 D
I love it when you look at me like that
                     G                   E5+
And you're the only girl that brings me back
                     G                 D      D4 D
'Cause, baby, I want all the strings attached
           G            E5+
It's like always and forever
         G              D   D4 D
I won't let the moment pass
              G               E5+
And when I'm with you I feel better
        G
I want all the strings
D
  All the strings attached

( G E5+ )

        G
I want all the strings
D
All the strings attached

     Em                    A7                    E5+                   Em
E|- - -0--0-0-0-0-0- - - - - - -0-0-0-0-0-0- - - - - -0-0-0-0-0-0- - - - -0--0-0-0-0-0- - -|
B|- - -0--0-0-0-0-0- - - -0h2- -2-2-2-2-2-2- - -0h1- -1-1-1-1-1-1- - - - -0--0-0-0-0-0- - -|
G|- - -0--0-0-0-0-0- - - -0- - -0-0-0-0-0-0- - -0- - -0-0-0-0-0-0- - - - -0--0-0-0-0-0- - -|
D|-0h2----2-2-0h2-2-2- - -0h2- -2-2-2-2-2-2- - -0h2- -2-2-2-2-2-2- - -0h2----2-2-0h2-2-2- -|
A|-0h2----2-2-0h2-2-2- - - - - - - - - - - - - - - - - - - - - - - - -0h2----2-2-0h2-2-2- -|
E|- - - - - - - - - - - - - - - - - - - - - - - - - - - - - -  - - - - - - - - - - - - - - -|

All the strings attached girl
All the strings attached girl
Yeah eh
00:00 / 00:00
Other videos of this song
Repeat
Other videos of this song
1.075 views
    • ½ Tone
    • A
    • Bb
    • B
    • C
    • Db
    • D
    • Eb
    • E
    • F
    • F#
    • G
    • Ab
  • Add to list

Afinação da cifra

Afinador online

    00:00 / 00:00
    OK