Cifra Club

When You're Ready

Shawn Mendes

Cifrado: Principal (guitarra y guitarra eléctrica)
tono: G (con acordes en la forma de D) Capotraste en 5ª casa
[TAB - Dedilhado]

   C      G/B   Am           Dm     C     G
E|-------------------------------1-------------------|
B|-----1-----1-----1-----1-------3-----1-----3-----3-|
G|-----0-----0-----2-----2-----2-------0-----0-----0-|
D|---2-----0-----2-----2-----0-------2-----0-----0---|
A|-3-----2-----0-----0-------------3-----------------|
E|---------------------------------------3-----3-----|

[Primeira Parte]

         C                        G/B
Maybe I had too many drinks but that's just what I needed
   Am
I hope that you don't think that what I'm saying sounds conceited
        Dm                               C
When I look across the room and you're staring right back at me
          G
Like somebody told the joke and we're the only ones laughin'

[Pré-Refrão]

 C                             G/B
Don't know why I tried, 'cause ain't nobody like you
   Am
Familiar disappointment, every single time I do
    Dm                    C
And every single night my arms are not around you
    G
My mind's still wrapped around you

[Refrão]

                           C
Baby, tell me when you're ready
     G/B  Am
I'm waitin'
                      Dm
Baby, anytime you're ready
     C    G
I'm waitin'
                     C                  G/B
Even ten years from now if you haven't found somebody
Am
I promise, I'll be around
                     Dm
Tell me when you're ready
     C    G
I'm waitin'

[Segunda Parte]

     C                           G/B
What if my dad is right, and he says that you're the one
    Am
No, I can't even argue, I won't even fight him on it
 Am                              C
Call you when it's late, and I know that you're on bed
       G
'Cause I'm three hours back, seems like you're always six ahead

[Pré-Refrão]

       C                                   G/B
And I don't know why I tried, 'cause there ain't nobody like you
   Am
Familiar disappointment, every single time I do
    Dm                    C
And every single night my arms are not around you
    G
My mind's still wrapped around you

[Refrão]

                           C
Baby, tell me when you're ready
     G/B  Am
I'm waitin'
                      Dm
Baby, anytime you're ready
     C    G
I'm waitin'
                     C                  G/B
Even ten years from now if you haven't found somebody
Am
I promise, I'll be around
                     Dm
Tell me when you're ready
     C    G
I'm waitin', yeah

[TAB - Dedilhado Ponte]

   Am     G/B   C           Dm      C      G
E|-------------------------------1-------------------|
B|-----1-----1-----1-----1-------3-----1-----3-----3-|
G|-----2-----0-----0-----0-----2-------0-----0-----0-|
D|---2-----0-----2-----2-----0-------2-----0-----0---|
A|-3-----2-----0-----0-------------3-----------------|
E|---------------------------------------3-----3-----|

   Am      G/B   C           Dm     Am    G
E|-------------------------------1-------------------|
B|-----1-----1-----1-----1-------3-----1-----3-----3-|
G|-----2-----0-----0-----0-----2-------2-----0-----0-|
D|---2-----0-----2-----2-----0-------2-----0-----0---|
A|-3-----2-----0-----0-------------3-----------------|
E|---------------------------------------3-----3-----|

[Ponte]

          Am            G/B      C
And if I have to, I'll wait forever
         Dm              C             G
Say the word, and I'll change my plans
            Am          G/B       C
Yeah, you know that we fit together
             Dm             Am         G
I know your heart like the back of my hand

[Refrão]

                              C
So baby, tell me when you're ready
     G/B  Am
I'm waitin'
                      Dm
Baby, anytime you're ready
     C    G
I'm waitin'
                     C                  G/B
Even ten years from now if you haven't found somebody
Am
I promise, I'll be around
                     Dm
Tell me when you're ready
     C    G
I'm waitin', yeah
                           C
Baby, tell me when you're ready
     G/B  Am
I'm waitin'
                      Dm
Baby, anytime you're ready
     C    G
I'm waitin'
                     C                  G/B
Even ten years from now if you haven't found somebody
Am
I promise, I'll be around
                     Dm
Tell me when you're ready
     C            G
I'm waitin', I'm waitin'
00:00 / 00:00
Otros videos de esta canción
Repetir
Otros videos de esta canción
Composición de Amy Allen / Geoff Warburton / Scott Harris / Shawn Mendes / Teddy Geiger
Colaboración y revisión:
1.659 exhibiciones
    • ½ Tono
    • A
    • Bb
    • B
    • C
    • Db
    • D
    • Eb
    • E
    • F
    • F#
    • G
    • Ab
  • Agregar a la lista
    00:00 / 00:00
    OK