Cifra Club

Who Are You When I'm Not Looking

Blake Shelton

Cifrado: Principal (guitarra y guitarra eléctrica)
tono: E (con acordes en la forma de D) Capotraste en 2ª casa
[Intro]
           
             Em7                    (D/F#)    G
E|------------------0------------------------------------------|
B|--------------3-------3------------------3-------------------|
G|----------------0-------0--------------------2---0---0-------|
D|2/4\2p0-0h2-------2-----2-2/4\2p0---------0-------0-------0h2|
A|------------------------------------0h2---------------0h2----|
E|---------0---0------0------0--------3---3------3-------------|

   D
E|----------0---------2p0--------------0-------------------|
B|------3-------3---3-----2/3--------------3---------------|
G|----2-------2---------------2------2---2------2----------|
D|-0------0-------0----------------0---------0-----0-----0-|
A|---------------------------------------------------0h2---|
E|---------------------------------------------------------|

   D 
E|------0-----------2p0--------------------0-----0h2---2p0----|
B|----3--------3--------3--------------3-------3-----------3--|
G|--2------2-------2------2---2----2-----2--------------------|
D|0------0---0---0----------0----0--0--------0-------0-------0|
A|------------------------------------------------------------|
E|------------------------------------------------------------|
  My, oh my, you're so good looking

   G 
E|---------------0--------------------------------0-------------|
B|-------3-----------3--------------------3-----------3---------|
G|-----0-----0-----0--------------------0-----0-----0-----0-----|
D|---0---------0-------0-------0------0---------0-------------0-|
A|-------------------------0h2----------------------------------|
E|-3-------3-------------3----------3-------3-----------3---3---|
  Hold yourself together like a pair of bookends

    A  
E|---------------0-----------------------------------0-----------|
B|------2----0----------2----0------0h2---2---0----------2---0h2-|
G|----2--------2------2--------2--------2--------2-----2---------|
D|---------------------------------------------------------------|
A|-0------0--------0------0---------0-------0------0-------0-----|
E|---------------------------------------------------------------|
  But I've not tasted all your cooking

   G  
E|---------------0----------------------------------0----|
B|-------3-----------3--------------0-----2----3----2----|
G|-----0-----0-----0----------------0-----2----4---------|
D|---0---------0-------0-------0-------0----------0------|
A|-------------------------0h2---------------------------|
E|-3-------3-------------3----------3-------3------------|

  Who are you when I'm not looking
D                                                                            Gadd9
Do you pour a little something on the rocks?  Slide down the hallway in your socks.
     A                                                                 Gadd9
When you undress, do you leave a path?  Then sink to your nose in a bubble bath.
D                                                              Gadd9
My oh my, you're so good looking.  Hold yourself together like a pair of bookends
    A                                                         Gadd9
But I've not tasted all you're cooking.  Who are you when I'm not looking?

         E             Gadd9          D
I wanna know, I wanna know, I wanna know.

D                                                                      Gadd9
Do you break things when you get mad?  Eat a box of chocolates cause you're feeling bad.
       A                                                                           Gadd9
Do you paint your toes 'cause you bite your nails?  And call up mama when all else fails.
D                                                              Gadd9
Who are you when I'm not around?  When the door is locked and the shades are down.
     A                                                         Gadd9
Do you listen to your music quietly?  And when it feels just right are ya thinking of me.

         E             Gadd9          D
I wanna know, I wanna know, I wanna know.

D
My oh my, you're so good looking.
D
But who are you when I'm not looking.
Composición de Earl Bud Lee / John Wiggins
Colaboración y revisión:
  • guilherme machado
  • Eddie Pinto
166 vistas
    • ½ Tono
    • A
    • Bb
    • B
    • C
    • Db
    • D
    • Eb
    • E
    • F
    • F#
    • G
    • Ab
  • Agregar a la lista

    0 comentarios

    Ver todos los comentarios

    ¿Lograste tocar?

    0 Tocaron 0 Aún no

    ¡Graba un video tocando Who Are You When I'm Not Looking y envíanoslo!

    00:00 / 00:00
    Outros vídeos desta música
    Repetir Calidad Automático
    Outros vídeos desta música
    00:00 / 00:00
    Automático
    OK