Cifra Club

I Feel Happy

Sheryl Crow

Cifrado: Principal (guitarra y guitarra eléctrica)
tono: F# (con acordes en la forma de E) Capotraste en 2ª casa
Tom :D

Riff 1
   Dsus2     Em11      Dsus2     Em11      Dsus2     Em11
 E-0---------0---------0---------0---------0---------0---
 B-3---------3---------3---------3---------3---------3---
 G-2---------0---------2---------0---------2---------0---
 D-0---------0---------0---------0---------0---------0---
 A-0---------0---------0---------0---------0---------0---
 E-0---------0---------0---------0---------0---------0---
(Repeat by changing chords extremely fast)

Riff 2
   G         D         Dsus4     Bm11      Dsus4     D         Dsus2
 E-3---------2---------3---------5---------3---------2---------0-
 B-3---------3---------3---------5---------3---------3---------3-
 G-0---------2---------2---------4---------2---------2---------2-
 D-0---------0---------0---------0---------0---------0---------0-
 A-2---------0---------0---------0---------0---------0---------0-
 E-3---------0---------0---------0---------0---------0---------0-

Other Chords Used:
   Gm(Add Eb)     E
 E-3--------------0--
 B-3--------------0--
 G-3--------------1--
 D-5--------------2--
 A-6--------------2--
 E-3--------------0--

Notes: Make sure your guitar is tuned say, to My Favorite Mistake.
       Tune it now 1/2 step down.
       Put Capo on 2nd fret.
R1 = Riff 1;  R2 = Riff 2

R1
Mamma's got a feeling, she's up all night
                                R2
Do we give in? Do we give up the fight?
             R1
I don't know


Don't wanna be dragged through, messed around, put down
                                    R2
Everybody's got their little fights to fight
         R1
I say no

       D   G
I Feel Happy
       D   G
I Feel Happy
       D   G
I Feel Happy
E                      G
Nothing you can say or do
E                        G
Is ever gonna make me feel blue
       R1
No, no



Monkey see and monkey do
Follow me I'll follow you, well not tonight
Not this time
So cool to be suicidal
Maybe I will get up, I feel good today
This is my life

       D   G
I Feel Happy
       D   G
I Feel Happy
       D   G
I Feel Happy
E                      G
Nothing you can say or do
E                        G
Is ever gonna make me feel blue
       R1
No, no
       D   G
I Feel Happy
       D   G
I Feel Happy
       D   G
I Feel Happy
E                      G
Nothing you can say or do
E                        G
Is ever gonna make me feel blue
       R1
No, no
(Solo)
End with     E    G    E   G m(Add Eb)

Monkey see and monkey do
Follow me I'll follow you, well not tonight
Not this time

       D   G
I Feel Happy
       D   G
I Feel Happy
       D   G
I Feel Happy
E                      G
Nothing you can say or do
E                        G
Is ever gonna make me feel blue
       R1
No, no
       D   G
I Feel Happy
       D   G
I Feel Happy
       D   G
I Feel Happy
E                      G
Nothing you can say or do
E                        G
Is ever gonna make me feel blue
       R1
No, no
00:00 / 00:00
Otros videos de esta canción
Repetir
Otros videos de esta canción
Compositor no encontrado.
98 vistas
    • ½ Tono
    • A
    • Bb
    • B
    • C
    • Db
    • D
    • Eb
    • E
    • F
    • F#
    • G
    • Ab
  • Agregar a la lista

    0 comentarios

    Ver todos los comentarios

    ¿Lograste tocar?

    0 Tocaron 0 Aún no

    ¡Graba un video tocando I Feel Happy y envíanoslo!

    00:00 / 00:00
    OK