Cifra Club

45

Shinedown

Cifrado: Principal (guitarra y guitarra eléctrica)
tono: G
Riff 1:

E|--------------------------------------------------------|
B|--------------------------------------------3-----------|
G|------0-----2------0---------0-----0------0---0---------|
D|----2----0-------0---------0-----0------4-------2-------|
A|-------------------------3-----3------3-----------------|
E|-0-----2-------3----------------------------------------|

Riff 2:

E|--------------------------------------------------------|
B|----------------------------------------------3---------|
G|-----0-----2-----0--0h2p0-----0------0------0---0-------|
D|---2-----0-----0---------4p0-0------0------4-------2----|
A|----------------------------3------3------3-------------|
E|-0-----2-----3------------------------------------------|

Riff 3:

E|--------------------------------------------------------|
B|--------------------------------------------3-----------|
G|-----0-----2-----0-----0------0-----0-----0---0---------|
D|---2-----0-----0-----0------0-----0-----4-------2-------|
A|--------------------------3-----3-----3-----------------|
E|-0-----2-----3------------------------------------------|

Riff 4:

E|-0-0-0-0-0-0-2-2-2-2-2-0-0-0-0-0-0-0--------------------|                                                                                                                       b -0-0-0-0-0-0-0-0-0-0-0-0-0-0-0-0-0-0--------------------|
G|-2-2-2-2-2-2-2-2-2-2-2-0-0-0-0-0-0-0--2-4-5-4-2---------|
D|-2-2-2-2-2-2-2-2-2-2-2-2-2-2-2-2-2-2------------2-------|
A|-0-0-0-0-0-0-0-0-0-0-0-2-2-2-2-2-2-2--------------------|
E|--------------------------------------------------------|

Riff 5:

E|-0-0-0-0-0-0-0-0-0-0-0-0--------------------------------|
B|-0-0-0-0-0-0-0-0-0-0-0-0--------------------------------|
G|-2-2-2-2-2-2-2-2-2-2-2-2--------------------------------|
D|-2-2-2-2-2-2-2-2-2-2-2-2-5-5-5-5-5-5-5-5-5-5-5-5--------|
A|-0-0-0-0-0-0-0-0-0-0-0-0-5-5-5-5-5-5-5-5-5-5-5-5--------|
E|-------------------------3-3-3-3-3-3-3-3-3-3-3-3--------|

Riff 6:

E|--------------------------------------------------------|
B|--------------------------------------------------------|
G|------------------------5----5--------------------------|
D|-5-4-2-------5----------5----5---5-4-2------------------|
A|-5-4-2-------5----------3----3---5-4-2------------------|
E|-3-2-0-------3-------------------3-2-0------------------|

Riff 7:

E|--------------------------------------------------------|
B|--------------------------------------------------------|
G|-5-5-5-5---5--4-----5-5-5-5---5--4----------------------|
D|-5-5-5-5---5--4-----5-5-5-5---5--4----------------------|
A|-3-3-3-3---3--2-----3-3-3-3---3--2----------------------|
E|--------------------------------------------------------|

Intro: Riff 1

(Riff 2)
Send away for a priceless gift
One not subtle, one not on the list

(Riff 3)
Send away for a perfect world
One not simply, so absurd

(Riff 2)
In these times of doing what you're told
You keep these feelings, no one knows

Am        Am6/E            Em
What ever happened to the young man's heart
Am           Am6/E        G           G5(9)
Swallowed by pain, as he slowly fell apart

 G  F#m   Em                         D9
And I'm staring down the barrel of a 45,
 CM7                                        G F#m
Swimming through the ashes of another life
G F#m Em                          D9
      There's no real reason to accept the way things have changed
 CM7                       Am
Staring down the barrel of a 45

(Riff 1)

(Riff 2)
Send a message to the unborn child
Keep your eyes open for a while
(Riff 3)
In a box high up on the shelf, left for you, no one else
(Riff 2)
There's a piece of a puzzle known as life
Wrapped in guilt, sealed up tight

Am        Am6/E            Em
What ever happened to the young man's heart
Am           Am6/E        G           G5(9)
Swallowed by pain, as he slowly fell apart

Refrão:

CM7           Bm
   Everyone's pointing their fingers
CM7          Bm
   Always condemning me
CM7           Bm           (Riff 1)
   And nobody knows what I believe

I believe
Composición de Brent Smith / Tony Battaglia
Colaboración y revisión:
864 vistas
    • ½ Tono
    • A
    • Bb
    • B
    • C
    • Db
    • D
    • Eb
    • E
    • F
    • F#
    • G
    • Ab
  • Agregar a la lista

    0 comentarios

    Ver todos los comentarios
    00:00 / 00:00
    Outros vídeos desta música
    Repetir Calidad Automático
    Outros vídeos desta música
    00:00 / 00:00
    Automático
    OK