Cifra Club

Junkies For Fame (intro)

Shinedown

Cifrado: Principal (guitarra y guitarra eléctrica)
tono: Db
(intro)

D |------------------------------------------|
A |------------------------------------------|
F |--------------------------5---------2-----|
C |------2---------0-------5---5-----2---2---|
G |----2---2-----0---0---3---------0---------|
C |--2---------0-----------------------------|

D |-----------------------------------------------------------|
A |-----------------------------------------------------------|
F |--------------------------5---------2------4--4--4-4-4--4--|
C |------2---------0-------5---5-----2---2----2--2--2-2-2--2--|
G |----2---2-----0---0---3---------0----------2--2--2-2-2--2--|
C |--2---------0------------------------------2--2--2-2-2--2--|

(verse)

D |------------------------------------------|
A |------------------------------------------|
F |--------------------------5---------2-----|
C |------2---------0-------5---5-----2---2---|
G |----2---2-----0---0---3---------0---------|
C |--2---------0-----------------------------|

D |------------------------------------------|
A |------------------------------------------|
F |--------------------------5---------2-----|
C |------2---------0-------5---5-----2---2---|
G |----2---2-----0---0---3---------0---------|
C |--2---------0-----------------------------|

D |------------------------------------------|
A |------------------------------------------|
F |--------------------------5---------2-----|
C |------2---------0-------5---5-----2---2---|
G |----2---2-----0---0---3---------0---------|
C |--2---------0-----------------------------|

D |------------------------------------------|
A |------------------------------------------|
F |--------------------------5---------2-----|
C |------2---------0-------5---5-----2---2---|
G |----2---2-----0---0---3---------0---------|
C |--2---------0-----------------------------|

(pre-chorus)

D |----------------------------------|
A |----------------------------------|
F |----------------------------------|
C |--9--9-9-9-9-9-9-9-9-9-9-9-9-9-9--|
G |--7--7-7-7-7-7-7-7-7-7-7-7-7-7-7--|
C |--7--7-7-7-7-7-7-7-7-7-7-7-7-7-7--|
       p p p p p p p p p p p   p

D |------------------------------------------------|
A |------------------------------------------------|
F |-12--12-12-12-12-12-12-12-12-12-12-12-12-12-12--|
C |-10--10-10-10-10-10-10-10-10-10-10-10-10-10-10--|
G |-10--10-10-10-10-10-10-10-10-10-10-10-10-10-10--|
C |-10--10-10-10-10-10-10-10-10-10-10-10-10-10-10--|
        p  p  p  p  p  p  p  p  p  p  p     p

D |------------------------------------------|
A |------------------------------------------|
F |-11--11-11-11-11-11-11-11-11-11-11-11-11--|
C |--9---9--9--9--9--9--9--9--9--9--9--9--9--|
G |--9---9--9--9--9--9--9--9--9--9--9--9--9--|
C |--9---9--9--9--9--9--9--9--9--9--9--9--9--|
        p  p  p  p  p  p  p  p  p  p  p  p

D |--------------------------------------------|
A |--------------------------------------------|
F |-10-10-10-10-10-10-10-10--8-8-8-8--7-7-7-7--|
C |--8--8--8--8--8--8--8--8--6-6-6-6--5-5-5-5--|
G |--8--8--8--8--8--8--8--8--6-6-6-6--5-5-5-5--|
C |--8--8--8--8--8--8--8--8--6-6-6-6--5-5-5-5--|

(chorus)

D |-----------------------------------|
A |-----------------------------------|
F |--4--4-4--4--4-4--5--5-5--2-2-2-2--|
C |--2--2-2--0--0-0--5--5-5--2-2-2-2--|
G |--2--2-2--0--0-0--3--3-3--0-0-0-0--|
C |--2--2-2--0--0-0-------------------|

D |-----------------------------------|
A |-----------------------------------|
F |--4--4-4--4--4-4--5--5-5--2-2-2-2--|
C |--2--2-2--0--0-0--5--5-5--2-2-2-2--|
G |--2--2-2--0--0-0--3--3-3--0-0-0-0--|
C |--2--2-2--0--0-0-------------------|

D |--------------------------------|
A |--------------------------------|
F |--4--4-4--4-4-4--4--4-4--4-4-4--|
C |--2--2-2--2-2-2--0--0-0--0-0-0--|
G |--2--2-2--2-2-2--0--0-0--0-0-0--|
C |--2--2-2--2-2-2--0--0-0--0-0-0--|

D |----------------------------------|
A |----------------------------------|
F |--5--5-5--5-5-5--2-2-2-2-2-2-2-2--|
C |--5--5-5--5-5-5--2-2-2-2-2-2-2-2--|
G |--3--3-3--3-3-3--0-0-0-0-0-0-0-0--|
C |----------------------------------|

D |-----------------------------------|
A |-----------------------------------|
F |--4--4-4--4--4-4--5--5-5--2-2-2-2--|
C |--2--2-2--0--0-0--5--5-5--2-2-2-2--|
G |--2--2-2--0--0-0--3--3-3--0-0-0-0--|
C |--2--2-2--0--0-0-------------------|

D |-----------------------------------|
A |-----------------------------------|
F |--4--4-4--4--4-4--5--5-5--2-2-2-2--|
C |--2--2-2--0--0-0--5--5-5--2-2-2-2--|
G |--2--2-2--0--0-0--3--3-3--0-0-0-0--|
C |--2--2-2--0--0-0-------------------|

(verse)

D |------------------------------------------|
A |------------------------------------------|
F |--------------------------5---------2-----|
C |------2---------0-------5---5-----2---2---|
G |----2---2-----0---0---3---------0---------|
C |--2---------0-----------------------------|

D |------------------------------------------|
A |------------------------------------------|
F |--------------------------5---------2-----|
C |------2---------0-------5---5-----2---2---|
G |----2---2-----0---0---3---------0---------|
C |--2---------0-----------------------------|

D |------------------------------------------|
A |------------------------------------------|
F |--------------------------5---------2-----|
C |------2---------0-------5---5-----2---2---|
G |----2---2-----0---0---3---------0---------|
C |--2---------0-----------------------------|

D |------------------------------------------|
A |------------------------------------------|
F |--------------------------5---------2-----|
C |------2---------0-------5---5-----2---2---|
G |----2---2-----0---0---3---------0---------|
C |--2---------0-----------------------------|

D |------------------------------------------|
A |------------------------------------------|
F |--------------------------5---------2-----|
C |------2---------0-------5---5-----2---2---|
G |----2---2-----0---0---3---------0---------|
C |--2---------0-----------------------------|

D |------------------------------------------|
A |------------------------------------------|
F |--------------------------5---------2-----|
C |------2---------0-------5---5-----2---2---|
G |----2---2-----0---0---3---------0---------|
C |--2---------0-----------------------------|

(pre-chorus)

D |----------------------------------|
A |----------------------------------|
F |--9--9-9-9-9-9-9-9-9-9-9-9-9-9-9--|
C |--7--7-7-7-7-7-7-7-7-7-7-7-7-7-7--|
G |--7--7-7-7-7-7-7-7-7-7-7-7-7-7-7--|
C |--7--7-7-7-7-7-7-7-7-7-7-7-7-7-7--|
       p p p p p p p p p p p   p

D |------------------------------------------------|
A |------------------------------------------------|
F |-12--12-12-12-12-12-12-12-12-12-12-12-12-12-12--|
C |-10--10-10-10-10-10-10-10-10-10-10-10-10-10-10--|
G |-10--10-10-10-10-10-10-10-10-10-10-10-10-10-10--|
C |-10--10-10-10-10-10-10-10-10-10-10-10-10-10-10--|
        p  p  p  p  p  p  p  p  p  p  p     p

D |------------------------------------------|
A |------------------------------------------|
F |-11--11-11-11-11-11-11-11-11-11-11-11-11--|
C |--9---9--9--9--9--9--9--9--9--9--9--9--9--|
G |--9---9--9--9--9--9--9--9--9--9--9--9--9--|
C |--9---9--9--9--9--9--9--9--9--9--9--9--9--|
        p  p  p  p  p  p  p  p  p  p  p  p

D |--------------------------------------------|
A |--------------------------------------------|
F |-10-10-10-10-10-10-10-10--8-8-8-8--7-7-7-7--|
C |--8--8--8--8--8--8--8--8--6-6-6-6--5-5-5-5--|
G |--8--8--8--8--8--8--8--8--6-6-6-6--5-5-5-5--|
C |--8--8--8--8--8--8--8--8--6-6-6-6--5-5-5-5--|

(chorus)

D |-----------------------------------|
A |-----------------------------------|
F |--4--4-4--4--4-4--5--5-5--2-2-2-2--|
C |--2--2-2--0--0-0--5--5-5--2-2-2-2--|
G |--2--2-2--0--0-0--3--3-3--0-0-0-0--|
C |--2--2-2--0--0-0-------------------|

D |-----------------------------------|
A |-----------------------------------|
F |--4--4-4--4--4-4--5--5-5--2-2-2-2--|
C |--2--2-2--0--0-0--5--5-5--2-2-2-2--|
G |--2--2-2--0--0-0--3--3-3--0-0-0-0--|
C |--2--2-2--0--0-0-------------------|

D |--------------------------------|
A |--------------------------------|
F |--4--4-4--4-4-4--4--4-4--4-4-4--|
C |--2--2-2--2-2-2--0--0-0--0-0-0--|
G |--2--2-2--2-2-2--0--0-0--0-0-0--|
C |--2--2-2--2-2-2--0--0-0--0-0-0--|

D |----------------------------------|
A |----------------------------------|
F |--5--5-5--5-5-5--2-2-2-2-2-2-2-2--|
C |--5--5-5--5-5-5--2-2-2-2-2-2-2-2--|
G |--3--3-3--3-3-3--0-0-0-0-0-0-0-0--|
C |----------------------------------|

(breakdown)

D |---------------------------------|
A |---------------------------------|
F |--4--4--4--4-4-4--5--5-5--2-2-2--|
C |--2--0--2--2-2-2--5--5-5--2-2-2--|
G |--2--0--2--2-2-2--3--3-3--0-0-0--|
C |--2--0--2--2-2-2-----------------|

D |---------------------------|
A |---------------------------|
F |--4--4--4-4--5-5--2-2-2-2--|
C |--2--2--2-2--5-5--2-2-2-2--|
G |--2--2--2-2--3-3--0-0-0-0--|
C |--2--2--2-2----------------|

D |---------------------------------------|
A |---------------------------------------|
F |--4--4--4--4-4--4/7--7-7--7/9--9-9-9---|
C |--2--0--2--2-2--2/5--5-5--5/7--7-7-7---|
G |--2--0--2--2-2--2/5--5-5--5/7--7-7-7---|
C |--2--0--2--2-2--2/5--5-5--5/7--7-7-7---|

D |---------------------------------------|
A |---------------------------------------|
F |--4--4--4--4-4--4/7--7-7--7/9--9-9-9---|
C |--2--0--2--2-2--2/5--5-5--5/7--7-7-7---|
G |--2--0--2--2-2--2/5--5-5--5/7--7-7-7---|
C |--2--0--2--2-2--2/5--5-5--5/7--7-7-7---|

D |---------------------------------------|
A |---------------------------------------|
F |--4--4--4--4-4--4/7--7-7--7/9--9-9-9---|
C |--2--0--2--2-2--2/5--5-5--5/7--7-7-7---|
G |--2--0--2--2-2--2/5--5-5--5/7--7-7-7---|
C |--2--0--2--2-2--2/5--5-5--5/7--7-7-7---|
D |---------------------------------------|
A |---------------------------------------|
F |--4--4--4--4-4--4/7--7-7--7/9--9-9-9---|
C |--2--0--2--2-2--2/5--5-5--5/7--7-7-7---|
G |--2--0--2--2-2--2/5--5-5--5/7--7-7-7---|
C |--2--0--2--2-2--2/5--5-5--5/7--7-7-7---|

D |--------------------------------|
A |--------------------------------|
F |--4--4-4--4-4-4--4--4-4--4-4-4--|
C |--2--2-2--2-2-2--0--0-0--0-0-0--|
G |--2--2-2--2-2-2--0--0-0--0-0-0--|
C |--2--2-2--2-2-2--0--0-0--0-0-0--|

D |----------------------------------|
A |----------------------------------|
F |--5--5-5--5-5-5--2-2-2-2-2-2-2-2--|
C |--5--5-5--5-5-5--2-2-2-2-2-2-2-2--|
G |--3--3-3--3-3-3--0-0-0-0-0-0-0-0--|
C |----------------------------------|

D |--------------------------------|
A |--------------------------------|
F |--4--4-4--4-4-4--4--4-4--4-4-4--|
C |--2--2-2--2-2-2--0--0-0--0-0-0--|
G |--2--2-2--2-2-2--0--0-0--0-0-0--|
C |--2--2-2--2-2-2--0--0-0--0-0-0--|

D |----------------------------------|
A |----------------------------------|
F |--5--5-5--5-5-5--2-2-2-2-2-2-2-2--|
C |--5--5-5--5-5-5--2-2-2-2-2-2-2-2--|
G |--3--3-3--3-3-3--0-0-0-0-0-0-0-0--|
C |----------------------------------|

(chorus)

D |-----------------------------------|
A |-----------------------------------|
F |--4--4-4--4--4-4--5--5-5--2-2-2-2--|
C |--2--2-2--0--0-0--5--5-5--2-2-2-2--|
G |--2--2-2--0--0-0--3--3-3--0-0-0-0--|
C |--2--2-2--0--0-0-------------------|

D |-----------------------------------|
A |-----------------------------------|
F |--4--4-4--4--4-4--5--5-5--2-2-2-2--|
C |--2--2-2--0--0-0--5--5-5--2-2-2-2--|
G |--2--2-2--0--0-0--3--3-3--0-0-0-0--|
C |--2--2-2--0--0-0-------------------|

D |--------------------------------|
A |--------------------------------|
F |--4--4-4--4-4-4--4--4-4--4-4-4--|
C |--2--2-2--2-2-2--0--0-0--0-0-0--|
G |--2--2-2--2-2-2--0--0-0--0-0-0--|
C |--2--2-2--2-2-2--0--0-0--0-0-0--|

D |----------------------------------|
A |----------------------------------|
F |--5--5-5--5-5-5--2-2-2-2-2-2-2-2--|
C |--5--5-5--5-5-5--2-2-2-2-2-2-2-2--|
G |--3--3-3--3-3-3--0-0-0-0-0-0-0-0--|
C |----------------------------------|

D |-----------------------------------|
A |-----------------------------------|
F |--4--4-4--4--4-4--5--5-5--2-2-2-2--|
C |--2--2-2--0--0-0--5--5-5--2-2-2-2--|
G |--2--2-2--0--0-0--3--3-3--0-0-0-0--|
C |--2--2-2--0--0-0-------------------|

D |---------------------------------------|
A |---------------------------------------|
F |--4--4-4--4--4-4--5--5-5--2-2-2-2---4--|
C |--2--2-2--0--0-0--5--5-5--2-2-2-2---2--|
G |--2--2-2--0--0-0--3--3-3--0-0-0-0---2--|
C |--2--2-2--0--0-0--------------------2--|
Compositor não encontrado.
Colaboración y revisión:
  • Érry Bardem
17 vistas
    • ½ Tono
    • A
    • Bb
    • B
    • C
    • Db
    • D
    • Eb
    • E
    • F
    • F#
    • G
    • Ab
  • Agregar a la lista

    0 comentarios

    Ver todos los comentarios

    ¿Lograste tocar?

    0 Tocaron 0 Aún no

    ¡Graba un video tocando Junkies For Fame (intro) y envíanoslo!

    00:00 / 00:00
    Outros vídeos desta música
    Repetir Calidad Automático
    Outros vídeos desta música
    00:00 / 00:00
    Automático
    OK