Cifra Club

Venus

Shocking Blue

Cifrado: Principal (guitarra y guitarra eléctrica)
tono: G
Introdução: B7(4)
            Em  A  Em  A
            B7(4)
            Em  A  Em  A  Em  A  Em  A

E|-12--------------------------------------------------|
B|-12--------------------------------------------------|
G|----b12r11--9~~--------------------------------------|
D|-----------------------------------------------------|
A|-----------------------------------------------------|
E|-----------------------------------------------------|


Primeira Parte:

   Em           A        Em  A
A goddess on a mountain top
     Em             A       Em  A
Was burning like a silver flame
     Em        A          Em  A
The summit of beauty and love
     Em        A       Em
And Venus was her name

(Riff de Transição)

E|-----------------------------------------------------|
B|-----------------------------------------------------|
G|-----------------------------------------------------|
D|-----------------------------------------------------|
A|-----0-1/2-1/2-0-------------------------------------|
E|-0-3-------------3-----------------------------------|


Primeiro Refrão:

       Am    D  Am
She's got it
      D           Em    A  Em  A
Yeah baby, she's got it
      C7                B7(4)
Well,    I'm your Venus
                  Em       A  Em  A
I'm your fire at your desire
      C7                B7(4)
Well,    I'm your Venus
                  Em       A  Em  A
I'm your fire at your desire


Solo: Em  A

E|------15--------14--------12----12-------------------|
B|--------------------------------12-------------------|
G|-/16-----16\14-----14\12-----------b12r11-9~--------9|
D|-----------------------------------------------9-11--|
A|-----------------------------------------------------|
E|-----------------------------------------------------|

E|------15--------14--------12----12-------------------|
B|--------------------------------12-------------------|
G|-/16-----16\14-----14\12-----------b12r11-9~------9--|
D|---------------------------------------------9-11----|
A|-----------------------------------------------------|
E|-----------------------------------------------------|

E|--------------12-------------------------12----------|
B|--------------12-------------------------12----------|
G|------9-11b13----b13r11--9-------9-11b13----b13r11-9-|
D|-9-11-----------------------9-11---------------------|
A|-----------------------------------------------------|
E|-----------------------------------------------------|

E|-----------------------------------------------------|
B|-----------------------------------------------------|
G|------9~--------9~-----------------------------------|
D|-9-11------9-11------11-9-6--------------------------|
A|----------------------------7~-------7\--------------|
E|---------------------------------7-9-----------------|


Segunda Parte:

     Em                A     Em   A
Her weapons were her crystal eyes
 Em      A        Em  A
Making every man mad
  Em          A           Em    A
Black as the dark night she was
          Em    A        Em
Got what no one else had


Segundo Refrão:

       Am    D  Am
She's got it
      D           Em    A  Em  A
Yeah baby, she's got it
      C7                B7(4)
Well,    I'm your Venus
                  Em       A  Em  A
I'm your fire at your desire
      C7                B7(4)
Well,    I'm your Venus
                  Em       A  Em  A
I'm your fire at your desire

Passagem 1: B5


Terceira Parte:

 ( Em  A  Em  A )

E|-----------------------------------------------------|
B|-b11r10--8-------------------------------------------|
G|-----------b8r7----7/9-------------------------------|
D|-----------------9-----------------------------------|
A|-----------------------------------------------------|
E|-----------------------------------------------------|


Terceiro Refrão:

       Am    D  Am
She's got it
      D           Em    A  Em  A
Yeah baby, she's got it
      C7                B7(4)
Well,    I'm your Venus
                  Em       A  Em  A
I'm your fire at your desire
      C7                B7(4)
Well,    I'm your Venus
                  Em       A  Em  A
I'm your fire at your desire


Passagem 2: B5


Final: B7(4)
       Em  A  Em  A
       B7(4)
       ( Em  A  Em  A )
00:00 / 00:00
Otros videos de esta canción
Repetir
Otros videos de esta canción
Composición de Robbie Van Leeuwen
Colaboración y revisión:
  • Vinícius Dias
  • Jean Pasqualotto
  • Thiago Oliveira
29.460 exhibiciones
    • ½ Tono
    • A
    • Bb
    • B
    • C
    • Db
    • D
    • Eb
    • E
    • F
    • F#
    • G
    • Ab
  • Agregar a la lista
    00:00 / 00:00
    Capítulos
    • Tocando a música
    • Dicas Iniciais / Equipamentos
    • Acordes da Introdução
    • Tocando a Introdução
    • Ritmo da Introdução
    • Riff da Introdução
    • Tocando a Primeira Parte
    • Transição
    • Acordes do Refrão
    • Tocando o Refrão
    • Ritmo do Refrão
    • Tocando o Solo
    • Solo - Parte 1 de 4
    • Solo - Parte 2 de 4
    • Solo - Parte 3 de 4
    • Solo - Parte 4 de 4
    • Tocando Segunda Parte - Terceira Parte
    • Ritmo da Passagem
    • Riff da Terceira Parte
    • Encerramento
    • Ficha Técnica
    OK