Cifra Club

Danmark

Shu-bi-dua

Cifrado: Principal (guitarra y guitarra eléctrica)
Selo Cifra Club: esta cifra foi revisada para atender aos critérios oficiais da nossa Equipe de Qualidade.
tono: E
intro. So i tried giving it a shot! Note - Theres two guitars playing in this song. The
that the other guitar uses is something like this: E-B-C#m-B-A.

E|------7-------------------------|
B|--7b9---10p9-7------------------|
G|---------------9----------------|
D|-----------------9s11-9-6-------|
A|--------------------------9-7~--|
E|--------------------------------|

E|-----------------14----12b14~---|
B|-----14-------14----14----------|
G|--16----16b18-------------------|
D|--------------------------------|
A|--------------------------------|
E|--------------------------------|

E|--------12-14-14~-19-17h19p17-16-14-12------------------|
B|--12-12--------------------------------16-14-16-12-14~--|
G|--------------------------------------------------------|
D|--------------------------------------------------------|
A|--------------------------------------------------------|
E|--------------------------------------------------------|

E|---------------------------------------|
B|--12h14p12s10--------------------------|
G|--------------13-11-9-11-9-8-6-8---9~--|
D|---------------------------------9-----|
A|---------------------------------------|
E|---------------------------------------|
Otros videos de esta canción
    1 exhibiciones
      • ½ Tono
      • A
      • Bb
      • B
      • C
      • Db
      • D
      • Eb
      • E
      • F
      • F#
      • G
      • Ab
    • Agregar a la lista

    Afinación de cifrado

    Afinador online

      OK