Cifra Club

Breathe Me

Sia

Cifrado: Principal (guitarra y guitarra eléctrica)
tono: F
It's not very accurate, but its a good way to play it acoustically.


       Am                             C                                 F
E|-----------------------------------------------------------------------------------|
B|----------------1----------------------------1-------------------------------------|
G|----------2--------2----2-----------0----------0-----0------------------2----------|
D|-------2----2--------2-----------2-----2----------2--------------3--------3-----3--|
A|----0--------------------------3-------------------------------3------3-------3----|
E|------------------------------------------------------------1----------------------|


We have this other version that is similar but idk if it's correct


     Am                      C                            F
E|---------------------------------------0----0--------------------------------------|
B|----1----1----1---1----------1----1----1----1-------------1----1-------------------|
G|----2----2----2---2----------0----0-----------------------2----2---(x6)------------|
D|-----------------------------------------------------------------------------------|
A|--0----0----0---0---------3-----3----3----3----------------------------------------|
E|--------------------------------------------------------1-----1--------------------|

Repet for all the song
Composición de Dan Carey / Sia Furler
Colaboración y revisión:
  • Vitória Souza
1.863 vistas
  • Simplificar cifrado
    • ½ Tono
    • A
    • Bb
    • B
    • C
    • Db
    • D
    • Eb
    • E
    • F
    • F#
    • G
    • Ab
  • Agregar a la lista

    0 comentarios

    Ver todos los comentarios

    ¿Lograste tocar?

    11 Tocaron 1 Aún no

    ¡Graba un video tocando Breathe Me y envíanoslo!

    00:00 / 00:00
    Outros vídeos desta música
    Repetir Calidad Automático
    Outros vídeos desta música
    00:00 / 00:00
    Automático
    OK