Cifra Club

Giving Up

Sick Of Sarah

Cifrado: Principal (guitarra y guitarra eléctrica)
Selo Cifra Club: esta cifra foi revisada para atender aos critérios oficiais da nossa Equipe de Qualidade.
tono: G
Intro:

1----------------------------------------------------------|
2----------------------------------------------------------|
3-----------------7-7-7-7-4-4---------------7-7-7-7-4-4----|
4---5-5-5-5-5-5-5-5-5-5-5-5-5---4-4-4-4-4-4-4-4-4-4-4-4----|
5----------------------------------------------------------|
6----------------------------------------------------------|

Em         C
Extend my hand for one more drink
             G  C
I'll let it slide
Em                     C
I haven't touched the surface yet
             G              C
It was too close for me, I caved

Here, (chorus) the "lead" guitar does something like,

1-------------------------------------------------------------|
2---------------12---12-12------------------------------------|
3---------------12---11-12------------------------------------|
4---------------12---12-12------------------------------------|
5-------------------------------------------------------------|
6-------------------------------------------------------------|

Em                    C
Now hold me 'til you fall asleep,
                G     C
Not making it easy, no
Em                    C
Were holding secrets underneath
                G     C
Not making it easy, no

C                 G D
The flowers never grow,
                      E4           G
I think I'll pick forever, this time

1---------------------------------------------------------|
2-----12----10-10-8---7-----------------------------------|
3-----12----(b9)-(b9)-7---7-------------------------------|
4---------------------------------------------------------|
5---------------------------------------------------------|
6---------------------------------------------------------|

G             D          E4
Well I guess I'm giving up again
D
I guess its fair, I guess its fair, I guess its fair
I just don't?
Em               C
Ration time and wait for sleep
G                              C
One will reflect, one will defeat
Em            C
Imagine me at seventeen,
              G                   C
Depressed and thin, homecoming queen
Em                    C
And you will always cross my mind
                G     C
Not making it easy, no
Em                      C
And you could leave at any time
                G          C
Not making it easy, not easy

C                 G D
The flowers never grow,
                      E4           G
I think I'll pick forever, this time

1---------------------------------------------------------|
2-----12----10-10-8---7-----------------------------------|
3-----12----(b9)-(b9)-7---7-------------------------------|
4---------------------------------------------------------|
5---------------------------------------------------------|
6---------------------------------------------------------|

G             D          E4
Well I guess I'm giving up again
D
I guess its fair, I guess its fair, I guess its fair
E4
I just don't care
               C
We disinant promises,
(leave me alone)
E4                     G
Wishful thinking was hopeless
                       E4
Help us find our way home
                           C
And you asked me if I've been there
         D
Have I been there,
                      C
I want to take you along
        G D                      C         G
This I know, I want to live forever this time

1---------------------------------------------------------|
2-----12----10-10-8---7-----------------------------------|
3-----12----(b9)-(b9)-7---7-------------------------------|
4---------------------------------------------------------|
5---------------------------------------------------------|
6---------------------------------------------------------|

G             D          E4
Well I guess I'm giving up again
D
I guess its fair, I guess its fair, I guess its fair
                      C
I want to take you along
      G D                  E4   G
My heart, I wanna live forever
G             D            E4
Well I'd love to see your face again
              D
I love you still, I love you still, I love you still
          Em
I love you
Otros videos de esta canción
    1 exhibiciones
      • ½ Tono
      • A
      • Bb
      • B
      • C
      • Db
      • D
      • Eb
      • E
      • F
      • F#
      • G
      • Ab
    • Agregar a la lista

    Afinação da cifra

    Afinador online

      Ops (: Contenido disponible solo en portugués.
      OK