Cifra Club

Aprenda

Uso

Sid

Tablatura: Principal (guitarra)
tono: D
(Primeiro encerramento de Fullmetal Alchemist Broherhood)

Ano hi mita sora
Akane-iro no sora wo
Nee kimi wa oboeteimasuka

Yakusoku chigiri
Shoka no kaze ga tsutsumu
Futari yorisotta

Bm

 Bm      F#m
Muri na egao no ura
  G              A
Nobita kage wo kakumau
 Bm     F#m           G   A      Bm
Dakara kizukanu furi saisei wo erabu

G              G                 Bm
TABLE no ue no furuenai shirase machi tsuzukete
G
Huuhaku no yoru mo
G
Kuru hazu no nai asa mo
F#m
Zenbu wakattetan da

    G       A       F#m        Bm
Ano hi mita sora akane-iro no sora wo
 G       A        F#m       Bm
Nee kimi wa wasureta no deshou
    G        A       F#m          Bm
Yakusoku chigiri shoka no kaze ni kieta
  G    A
Futari modorenai

 Bm     F#m
Oto mo iro mo ondo mo
  G               A
Hanbun ni natta kono heya
 Bm        F#m
Kyou mo chirakashite wa
  G     A       Bm
Yure tsukare nemuru

Base: Bm F#m A Em

E |-10-9--10-9-------------------------------------9-10---10-10-10-9-9-9-7-6----|
B |-----------10------------10-------------10----12-------------------------8-7-|
G |-------------11------11----11-------9-11--11---------------------------------|
D |-----------------9-12-----------9-12-----------------------------------------|
A |-----------------------------------------------------------------------------|
E |-----------------------------------------------------------------------------|

E |------------------10-10/12-10--9-10-9-----------------------9-10--10---12/14-14-14-14-1412-10-9-10-9-10-7|
B |-------------------------------------10----------10------10-----12--12-------------------------------------|
G |-----9-11-11-11-11---------------------------9-11---9-10---------------------------------------------------|
D |-9-12------------------------------------9-12--------------------------------------------------------------|
A |-----------------------------------------------------------------------------------------------------------|
E |-----------------------------------------------------------------------------------------------------------|

G                     G
Jouzu ni damashite ne uso wa kirai de suki
 Bm
Kimi no kotoba
G
Imagoro ni natte
  G                  F#m
Kimochi wa itai hodo dakara bokura sayonara

    G        A           F#m  Bm
Itsuka mata ne to te wo furiatta kedo
 G     A         F#m      Bm
mou au koto wa nai no deshou
   G      A          F#m      Bm
Saigo no uso wa yasashii uso deshita
  G    A
wasurenai

    G (pausa) A
Ano hi mita sora
   F#m       Bm
Akane-iro no sora wo
 G      A      F#m       Bm
Nee itsuka omoidasu deshou
    G     A       F#m      Bm
Hatasenakatta yakusoku wo idaite
  G    A       Bm
Futari arukidasu...
Colaboración y revision:
  • Victor Matsuguma
1.952 reproducciones
    • ½ Tono
    • A
    • Bb
    • B
    • C
    • Db
    • D
    • Eb
    • E
    • F
    • F#
    • G
    • Ab
  • Adicionar à lista

    0 comentarios

    Ver todos os comentários

    ¿Conseguiste tocar?

    6 Tocaram 1 Ainda não

    Grave um vídeo tocando Uso e nos envie!

    00:00 / 00:00
    outros vídeos desta música
    repetir qualidade Automático
    Outros vídeos desta música
    00:00 / 00:00
    Automático
    OK