Cifra Club

Tell Me

Side A

Cifrado: Principal (guitarra y guitarra eléctrica)
tono: G
JOSHUA SORIANO
JOSHUA SORIANO
This song is really great!!!!!
It is originally sang by joey albert!!!!
This tab is really great!!!
Plzz add Sh0J* call me @ 520-77-67
                                   Txt  me @ 09205563869 for more info:


Intro:
e---0-----3-----1--3-|
b-1-----3-----1----3-|
g--------------------|
d--------------------|
a-3-----2-----1----2-|
e------------------3-|

verse:                      repeat 2x
e-0---------0---------0-0h1--------------0-----------------0----|
b-----1----------1----------0h1--3--3------0--1--3-1-0--------3-|
g---0---0------0---0-------------------0----------------2-------|     
d---------------------------------------------2-----------------|
a---------------------2----------2--2-------------------1-----2-|
e-3---------2---------------------------------------------------| 

chorus:
e-3------3------------7-8-7------------7-7-8-7----------8/10--8-0-1-------|
b-3---3--3-0h1-1-3-0---------8/10--8------------8/10--8--------------0--3-|
g---0---------------------------------------------------------------------|
d-----------------------------------------------------------------3-------|
a--------0------------8------------7---8--------------7-----------------2-|
e-0-----------------------------------------------------------------------|

e-3/5-3---3-3-----------7-8-7---------7-7-8-7---------7-7h8--0-|
b-3/5-3-3---3-0h1-1-3-0------------8----------8/10-8-----------|
g-----------------------------8/10-----------------------------|
d----------------------------------7---------------------------|
a-----------0-----------8-------------8------------7-----------|
e-----0--------------------------------------------------------|

ending:
e-1--3--5--7--8---8--8---8--8---8----8---8---8-|
b-------------8-8----8-8----8-8------8---8---8-|
g----------------------------------------------|
d-3--3--3--5--8------7------6------5---5---5---|
a----------------------------------------------|
e--------------------------------------------8-|
00:00 / 00:00
Otros videos de esta canción
Repetir
Otros videos de esta canción
Compositor no encontrado.
9 exhibiciones
    • ½ Tono
    • A
    • Bb
    • B
    • C
    • Db
    • D
    • Eb
    • E
    • F
    • F#
    • G
    • Ab
  • Agregar a la lista
    00:00 / 00:00
    OK