Cifra Club

Chica Fácil

Sidecars

Cifrado: Principal (guitarra y guitarra eléctrica)
tono: Em
INTRO    G   DGF   EFE D  BCBC x2
Tocar en la 4º y 5º cuerda, o el punteo, es lo mismo.
E|-------------------------------------|
B|------8---8-6---5-6-5----------------|
G|--------7-------------7---4-5-4-5----| x2
D|-------------------------------------|
A|-------------------------------------|

     G              C           D         G
La primera vez, vestías tu sonrisa preferida

C            D           G
tenías una noche divertida,

C            D           G           D
reias hasta hacerme enloquecer

          G*         (F*           Em*)             G*
Parecias ser, la chica más bonita de Almería

(F*               Em*)              G*
tan mala como guapa y lo sabias,

(F*                Em*)             G*
pero eso lo tenías que esconder

        Em*               C
Sin dejar te ví, salió mucho más claro

        Em*       D        C
que quedarme aqui solo pensando

B            Am            D
lo que pudo ser, y no fue.

G            C   G   D           C    D
Tienes el sabor del rock,  de camerino fácil

G          C   G    D           C      D
Llevas esa onda soul   de princesita dócil.

E|-------------------------------------|
B|------8---8-6---5-6-5----------------|
G|--------7-------------7---4-5-4-5----|
D|-------------------------------------|
A|-------------------------------------|

E|-------------------------------------|
B|------8---8-6---5-6-5----------------|
G|--------7-------------7--------------|
D|-------------------------------------|
A|-------------------------------------|

Me enteré que tú no habias sido la elegida,
que así sueles pasar tu día a día
Pensar que no cedia y me dejé,
Te supe entender, así se puede resumir mi vida
De chicas faciles y parecidas,
Pero ahora hemos cambiado de papel.
Sin dejar te ví, salió mucho más claro
que quedarme aqui solo pensando
lo que pudo ser, y no fue.
Tienes el sabor del rock, de camerino fácil
Llevas esa onda soul, de pricesita dócil
Nadie quiere autocontrol
con una chica fácil.
00:00 / 00:00
Otros videos de esta canción
Repetir
Otros videos de esta canción
Compositor no encontrado.
2 vistas
    • ½ Tono
    • Am
    • Bbm
    • Bm
    • Cm
    • C#m
    • Dm
    • Ebm
    • Em
    • Fm
    • F#m
    • Gm
    • G#m
  • Agregar a la lista

    0 comentarios

    Ver todos los comentarios

    ¿Lograste tocar?

    0 Tocaron 0 Aún no

    ¡Graba un video tocando Chica Fácil y envíanoslo!

    00:00 / 00:00
    OK