Cifra Club

Cuando caigas en shock

Sidecars

Cifrado: Principal (guitarra y guitarra eléctrica)
tono: G
Intro:

                    Am    C           G         D
E|-------------------|---------------------------|
B|--8/7--5/3----3----|--5-3----------------------|
G|------------4---5--|------5-4-2-0--------------|
D|-------------------|--------------0--0--4b5r4--|
A|-------------------|---------------------------|
E|-------------------|---------------------------|

           Am                    D               G
E|---------------------|--------------------------|
B|---------------------|-----------3------3-------|
G|----0--0h2--2-0-2-0--|----0--2/4---4--5---5--4--|
D|--2------------------|--2-----------------------|
A|---------------------|--------------------------|
E|---------------------|--------------------------|


G                                Am
No sé qué decir, soy consciente, pudo ser peor
D                               G
No lo vi venir y el tiempo no para
G                                  Am
Deja entrar la luz, sube y ponle altura al vértigo
D                               G
Levantar tu cruz no sirvió de nada
C           G           C          D
Vernos de pasada y suplicar "por favor"


     Am                      D                      G
Cerraré cuando salgas, cambiaré el nombre y la dirección
    Am                     D                   G
Pagaré lo que valgas, llámame cuando caigas en shock
     Am                    C                   G    Em
Volveré a las andadas, dejaré que me partas en dos
Em    Am       D                G
Qué importa si puedes permitírtelo


G                              Am
¿Dónde estabas tú cuando se rompió mi corazón?
   D                                      G
Surcando el cielo azul, no bajabas la mirada
G                              Am
Vuelvo a amanecer, otra vez desnudo y tóxico
D                                    G
Tres meses después, no ha cambiado nada
C             G   C                D
Cuatro madrugadas para olvidarte mejor


     Am                      D                      G
Cerraré cuando salgas, cambiaré el nombre y la dirección
    Am                     D                   G
Pagaré lo que valgas, llámame cuando caigas en shock
     Am                    C                   G    Em
Volveré a las andadas, dejaré que me partas en dos
Em    Am       D                G
Qué importa si puedes permitírtelo



     F    C     G                      F  C  G  D
E|------------------------------|
B|------------------------------|
G|------------------------------|
D|------------7b9--7b9r7--5-----|
A|---------------------------7--|
E|------------------------------|

      F                C              G
E|---------------------------------------|
B|---------------------------------------|
G|--2-0--------0-0p2-0--0----------------|
D|------3-2--3------------3-2-0-----3/5--|
A|------------------------------3-2------|
E|---------------------------------------|

               Bb        F     D
E|--------------1--1------|-------------------------|
B|------------------------|--8/7--5/3--3p5h3h1-0----|
G|--0-x-0--0/3-------3/5--|----------------------2--|
D|--0-x-0--0/3-------3/5--|-------------------------|
A|------------------------|-------------------------|
E|------------------------|-------------------------|


     Am                      D                      G
Cerraré cuando salgas, cambiaré el nombre y la dirección
    Am                     D                   G
Pagaré lo que valgas, llámame cuando caigas en shock
     Am                    C                   G    Em
Volveré a las andadas, dejaré que me partas en dos
Em    Am       D                Am
Qué importa si puedes permitírtelo


      C           G         D
E|---------------------------|
B|--5-3----------------------|
G|------5-4-2-0--------------|
D|--------------0--0--4b5r4--|
A|---------------------------|
E|---------------------------|

           Am                    D               G          C              G
E|---------------------|-------------3--------3-----------------8--------3--|
B|---------------------|-----------3--------3-------------3/5------5/3---3--|
G|----0--0h2--2-0-2-0--|----0--2/4-----4--5------5--4--------------------0--|
D|--2------------------|--2----------------------------------------------0--|
A|---------------------|-------------------------------------------------2--|
E|---------------------|-------------------------------------------------3--|
00:00 / 00:00
Otros videos de esta canción
Repetir
Otros videos de esta canción
Composición de Sidecars
2 vistas
    • ½ Tono
    • A
    • Bb
    • B
    • C
    • Db
    • D
    • Eb
    • E
    • F
    • F#
    • G
    • Ab
  • Agregar a la lista

    0 comentarios

    Ver todos los comentarios

    ¿Lograste tocar?

    0 Tocaron 0 Aún no

    ¡Graba un video tocando Cuando caigas en shock y envíanoslo!

    00:00 / 00:00
    OK