Cifra Club

A Visita

Silva

Cifrado: Principal (guitarra y guitarra eléctrica)
tono: C
Intro: C  F  Dm  C

E|--3--5--8--5--3--5------------------------|
B|--------------------5~--------------------|
G|------------------------5~----------------|   (2x)
D|------------------------------------------|
A|------------------------------------------|
E|------------------------------------------|

E|------------------------------------------|
B|--3--5------6-6~--------------------------|
G|--------2~--------------------------------|
D|------------------------------------------|
A|------------------------------------------|
E|------------------------------------------|

E|------------------------------------------|
B|--3--5--6--5--3--5--6--3------------------|
G|------------------------------------------|   (2x)
D|------------------------------------------|
A|------------------------------------------|
E|------------------------------------------|

E|------------------------------------------|
B|------------------------------------------|
G|--------5-5~------------------------------|
D|--5--7------------------------------------|
A|------------------------------------------|
E|------------------------------------------|

C
Vou lhe fazer uma visita

Mas não fica assim aflita
            Dm
Que eu não sou de reparar
G
Não precisa de banquete

Nem preocupe com enfeite
        C
Não me vai empetecar
C
Os velhos discos de bolero

To levando pois eu quero
      Dm
Ensinar como dançar
G
Lhe dizer ao pé do ouvido, com um tom meio atrevido
C
Dois pra La e dois pra cá

Intro: C  Dm  G  C

C
Vou lhe fazer outra visita
Pra lhe ver assim bonita
      Dm
Ir correndo ao portão
G
Decorou o tal bolero
Vem cantando em tom sincero
C
Sequestrando minha atenção
A radiola ta no jeito
E aproximo do meu peito
       Dm
Repetindo a tentação
G
São dois pra La e dois pra cá
Você vai ver no que da
            C                  C7
Cantar de novo esse refrão
F
Olhe pra junto dos meus pés
Fm
Você consegue reparar
         C       D7
O tempo de nós dois
        F
E ver assim como se dança
          G
O passo é feito de esperança
         C          C7
Espero amar depois
F
Olhe pra junto dos meus pés
Fm
Você consegue reparar
         C       D7
O tempo de nós dois
      F
E ver assim como se dança
            G
O passo é feito de esperança pois

( C  Dm  G  C )
Compositor no encontrado.
390 vistas
    • ½ Tono
    • A
    • Bb
    • B
    • C
    • Db
    • D
    • Eb
    • E
    • F
    • F#
    • G
    • Ab
  • Agregar a la lista

    0 comentarios

    Ver todos los comentarios

    ¿Lograste tocar?

    19 Tocaron 2 Aún no

    ¡Graba un video tocando A Visita y envíanoslo!

    00:00 / 00:00
    Otros videos de esta canción
    Repetir Calidad Automático
    Otros videos de esta canción
    00:00 / 00:00
    Automático
    OK