Cifra Club

Do You Feel The Same

Silverchair

Cifrado: Principal (guitarra y guitarra eléctrica)
tono: C
Do You Feel The Same

Standard tuning. 

[0:00] Verse
        Am            F   
e||----------------------1-x-1-0------|| x4
B||----1-1--1-x-1-0------1-x-1-0------||
G||----2-2--2-x-2-2--2-2-2-x-2-2------||
D||----2-2--2-x-2-2--3-3-3-x-3-3------||
A||----0-0--3-x-0-0--3-3-3-x-3-3------||
E||------------------1-1--------------||
Moon covered determined
To find
To find my place of hiding
Try to detach
Try to decrease 
To make it easier (on me)
Despise myself for what you've done
Sent me back into my world
Hold yourself
Cause no-one will
I'll make it easier

[0:31] Prechorus

|-------0----------0----------0-------0--------|
|-3-3-----3---3--1---1--1--1----1-------1------|
|-4-4-------4-4--2------2--0------0-------0----|
|-5-5---------5--3------3--2--------2----------|
|-5-5-5-------5--3------3--3-------------------|
|----------------------------------------------|
Now I have managed to be the one

|-------0----------0------------------------|
|-3-3-----3---3--1---1--1--1----------------|
|-4-4-------4-4--2------2--2----------------|
|-5-5---------5--3------3--2----------------|
|-5-5-5-------5--3------3--0----------------|
|-------------------------------------------|
To be the victim without the gun

[0:46] Chorus
  A5  F5 F5 D5  A5  F5  G5
|-------------|-----------|
|-----------3-|-----------|
|-2---------2-|-2---------|
|-2---3---3-0-|-2---3---5-|
|-0---3---3---|-0---3---5-|
|-----1---1---|-----1---3-|
Do you feel the same anyway
Now you've come
Do you feel the same anyway
Now you've come

[1:01] Verse

        Am            F   
e||----------------------1-x-1-0------|| x4
B||----1-1--1-x-1-0------1-x-1-0------||
G||----2-2--2-x-2-2--2-2-2-x-2-2------||
D||----2-2--2-x-2-2--3-3-3-x-3-3------||
A||----0-0--3-x-0-0--3-3-3-x-3-3------||
E||------------------1-1--------------||

Stay alert cause I'm obsessed
Surely I can't be depressed
Could I be read if I was see-through
Or would you just read my spine

[1:31] Prechorus

|-------0----------0----------0-------0--------|
|-3-3-----3---3--1---1--1--1----1-------1------|
|-4-4-------4-4--2------2--0------0-------0----|
|-5-5---------5--3------3--2--------2----------|
|-5-5-5-------5--3------3--3-------------------|
|----------------------------------------------|
Now I have managed to be the one

|-------0----------0------------------------|
|-3-3-----3---3--1---1--1--1----------------|
|-4-4-------4-4--2------2--2----------------|
|-5-5---------5--3------3--2----------------|
|-5-5-5-------5--3------3--0----------------|
|-------------------------------------------|
To be the victim without the gun

[1:47] Chorus
      A5  F  F5 D5 x3  A5 F5 G5     
||-------------------||--------|
||--------------2----||--------|
||-o--2---------3--o-||-2------|  
||-o--2---3---3-0--o-||-2--3--5|
||----0---3---3------||-0--3--5|
||--------1---1------||----1--3|
Do you feel the same anyway
Now you've come
Do you feel the same anyway
Now youuu've come
Do you feel the same 
Feel the same
Now you've come
Do you feel the same anyway
  
  Am         F 
|---------------------|
|-1----------1--------|
|-2----------2--------|
|-2----------3--------|
|-0----------3--------|
|---------------------|

Am
Hold yourself
           F   
Cos no-one will
                          Am 
I'll be there to take the spill
Cleanse your soul
           F                              Am
Change the tide and ride the wave back to me


[2:32] Guitar solo (with delay and reverb)
|-------------------------------------------------
|-7b-9-7-------------------------------------------
|-7b-9-7-5-7-5------5~----------------------------
|---------------7-7------------------------------5-
|------------------------------3---3-5-3-5-7-5-7--
|------------------------5-3-5---5----------------

    --------------------------------------------|
    -----------------------8/10-10--8-----------|
    -----------5-7-5-7/9-9--------------5b-7b---|
    ---5-7-5-7----------------------------------|
    -7------------------------------------------|
    --------------------------------------------|

|----------------------------------------------------------------------|
|----------------------------------------------------------------------|
|----------------------------------------------------------------------|
|-7-------------------5---5h7~-----------7---------------7-------------|
|---6----------5--5h7---7------8-8-/---7---6-------5---7---6------5----|
|------5-7b-5----------------------------------5-8------------5-8------|

|-----------------------------------------|
|-----------------------------------------|
|--------------5h7-7b-5~--4-5-4-5-0-------|
|--------5h7-7----------------------------| 
|--5h7-7----------------------------------|
|-----------------------------------------|

[3:01] Prechorus

|-------0----------0----------0-------0--------|
|-3-3-----3---3--1---1--1--1----1-------1------|
|-4-4-------4-4--2------2--0------0-------0----|
|-5-5---------5--3------3--2--------2----------|
|-5-5-5-------5--3------3--3-------------------|
|----------------------------------------------|
Be the one

|-------0----------0------------------------|
|-3-3-----3---3--1---1--1--1----------------|
|-4-4-------4-4--2------2--2----------------|
|-5-5---------5--3------3--2----------------|
|-5-5-5-------5--3------3--0----------------|
|-------------------------------------------|
Without the gun

[3:16] Chorus

      A5  F  F5 D5 x3   A5 F5 G5     
||-------------------||--------|
||--------------2----||--------|
||-o--2---------3--o-||-2------|  
||-o--2---3---3-0--o-||-2--3--5|
||----0---3---3------||-0--3--5|
||--------1---1------||----1--3|
  
Do you feel the same anyway
Now you've come
Do you feel the same anyway
Now you've come
Do you feel the same 
Feel the same
Now you've come
Do you feel the same anyway
Now you've come

[3:46] End
  Am                         F
|------------------0--------------------------------|
|-----1--------------1-----------------------0------|
|-------0--------2-----2---------2-------------2----|
|---2-----2----2---------2---------3-------3-----3--|
|-0----------0-----------------3-----3---3----------|
|----------------------------1---------1------------|
00:00 / 00:00
Otros videos de esta canción
Repetir
Otros videos de esta canción
Composición de Daniel Johns
68 vistas
    • ½ Tono
    • A
    • Bb
    • B
    • C
    • Db
    • D
    • Eb
    • E
    • F
    • F#
    • G
    • Ab
  • Agregar a la lista

    0 comentarios

    Ver todos los comentarios

    ¿Lograste tocar?

    1 Tocaron 0 Aún no

    ¡Graba un video tocando Do You Feel The Same y envíanoslo!

    00:00 / 00:00
    OK