Cifra Club

Waste It On

Silversun Pickups

Tab de bajo: Principal
Album - Carnavas
Track - 6
Bassist - Nikki Monninger
Drop D Tuning

Intro
G-------------------------------|
D-------------------------------|
A-------------3-5----5-5------5-|
D-0-2-3-5-7-8-----00-----00-----| x4

G-------------------------------|
D-------------------------------|
A-------------3-5----5-5----5-5-|
D-0-2-3-5-7-8-----00-----00-----| x1

G-------------------------------|
D-------------------------------|
A-------------3-5----5-5------5-|
D-0-2-3-5-7-8-----00-----00-----| x1

Verse 1
G-------------------------------|
D-------------------------------|
A-------------3-5----5-5------5-|
D-0-2-3-5-7-8-----00-----00-----| x2

G-------------------------------|
D-------------------------------|
A-------------3-5----5--5--5--5-|
D-0-2-3-5-7-8-----00---5--5-----| x1

G-------------------------------|
D-------------------------------|
A-------------3-5----5-5------5-|
D-0-2-3-5-7-8-----00-----00-----| x3

G-------------------------------|
D-------------------------------|
A-------------3-5----5--5--5--5-|
D-0-2-3-5-7-8-----00---5--5-----| x1


G-------------------------------|
D-------------------------------|
A-------------3-5----5-5------5-|
D-0-2-3-5-7-8-----00-----00-----| x1

Chorus
G---------------------------------|
D---------------------------------|
A---------------------------------|
D-5-5-5-5-5-5-5-7-0-0-0-0-0-0-0-0-| x1

G---------------------------------|
D---------------------------------|
A---------------3-----------------|
D-8-8-8-8-8-8-8---0-0-0-0-0-0-0-0-| x1

G---------------------------------|
D---------------------------------|
A---------------------------------|
D-5-5-5-5-5-5-5-7-8-8-8-8-8-8-8-8-| x1

G--------------|
D--------------|
A-3--3---------|
D-------5--5---| x1

Interlude
G-------------------------------|
D-------------------------------|
A-------------3-5----5-5------5-|
D-0-2-3-5-7-8-----00-----00-----| x2

Verse 2: Same as Verse 1

Chorus: Same as before, but an octave higher, so:
G---------------------------------|
D-5-5-5-5-5-5-5-7-0-0-0-0-0-0-0-0-|
A---------------------------------|
D---------------------------------| x1

G---------------5-----------------|
D-8-8-8-8-8-8-8---0-0-0-0-0-0-0-0-|
A---------------------------------|
D---------------------------------| x1

G---------------------------------|
D-5-5-5-5-5-5-5-7-8-8-8-8-8-8-8-8-|
A---------------------------------|
D---------------------------------| x1

G--------------|
D--------------|
A-3--3---------|
D-------5--5---| x1

Bridge
G---------------------------------|
D-8-8-8-8-8-8-8-8-8-8-8-8-8-8-8-8-|
A---------------------------------|
D---------------------------------| x1

G---------------------------------|
D---------------------------------|
A-5-5-5-5-5-5-5-5-5-5-5-5-5-5-5-5-|
D---------------------------------| x1

G---------------------------------|
D---------------------------------|
A---------------------------------|
D-8-8-8-8-8-8-8-8-8-8-8-8-8-8-8-8-| x1

G---------------------------------|
D---------------------------------|
A-3-3-3-3-3-3-3-3-3-3-3-3-3-3-3-3-|
D---------------------------------| x1

Solo
G-------------5-7--------7----7-7-|
D-------5-7-8---------------------|
A-5-7-8--------------5------------|
D-----------------00---0---0------| x1

G-------------------------------|
D-------------------------------|
A-------------3-5----5-5------5-|
D-0-2-3-5-7-8-----00-----00-----| x3

G-------------5-7---------------|
D-------5-7-8-------------------|
A-5-7-8--------------5-5------5-|
D-----------------00-----00-----| x1

G-------------------------------|
D-------------------------------|
A-------------3-5----5-5------5-|
D-0-2-3-5-7-8-----00-----00-----| x2

G-------------------------------|
D-------------------------------|
A-------------3-5----5--5--5--5-|
D-0-2-3-5-7-8-----00---5--5-----| x1

Bridge x1

Pause

Final Chorus
G---------------------------------|
D---------------------------------|
A---------------------------------|
D-5-5-5-5-5-5-5-7-0-0-0-0-0-0-0-0-| x1

G---------------------------------|
D---------------------------------|
A---------------3-----------------|
D-8-8-8-8-8-8-8---0-0-0-0-0-0-0-0-| x1

G---------------------------------|
D---------------------------------|
A---------------------------------|
D-5-5-5-5-5-5-5-7-0-0-0-0-0-0-0-0-| x1

G---------------------------------|
D---------------------------------|
A---------------3-----------------|
D-8-8-8-8-8-8-8---0-0-0-0-0-0-0-0-| x1

G---------------------------------|
D---------------------------------|
A---------------------------------|
D-5-5-5-5-5-5-5-7-0-0-0-0-0-0-0-0-| x1

G---------------------------------|
D---------------------------------|
A---------------3-----------------|
D-8-8-8-8-8-8-8---0-0-0-0-0-0-0-0-| x1

G---------------------------------|
D---------------------------------|
A---------------------------------|
D-5-5-5-5-5-5-5-7-8-8-8-8-8-8-8-8-| x1

G--------------|
D--------------|
A-3--3---------|
D-------5--5---| x1
Composición de Silversun Pickups
18 vistas

0 comentarios

Ver todos los comentarios

¿Lograste tocar?

0 Tocaron 0 Aún no

¡Graba un video tocando Waste It On y envíanoslo!

00:00 / 00:00
Otros videos de esta canción
Repetir Calidad Automático
Otros videos de esta canción
00:00 / 00:00
Automático
OK