Cifra Club

Culpa de los dos

Silvestre Dangond

Cifrado: Principal (guitarra y guitarra eléctrica)
Selo Cifra Club: esta cifra foi revisada para atender aos critérios oficiais da nossa Equipe de Qualidade.
tono: G
                                   (G)
E|---10---8---7---5---2---3---3-2-0-----3------------------|
B|---12---10--8---7---3---5---------3---3------------------|
G|--------------------------------------4------------------|
D|--------------------------------------5------------------|
A|---------------------------------------------------------|
E|---------------------------------------------------------|

E|-3-5-7-3---3-5-7-8-12-10-10-8-7---7-8-7-8-7--10-8-10-8-10|
B|---------------------------------------------------------|
G|---------------------------------------------------------|
D|---------------------------------------------------------|
A|---------------------------------------------------------|
E|---------------------------------------------------------|

E|--12-10-12-10-12-12-14-16-16-10-8-10-8-10-10-12-14-14-8-7|
B|---------------------------------------------------------|
G|---------------------------------------------------------|
D|---------------------------------------------------------|
A|---------------------------------------------------------|
E|---------------------------------------------------------|

E|-8-7-8-8-10-12-10-8-7------------------------------------|
B|---------------------------------------------------------|
G|---------------------------------------------------------|
D|---------------------------------------------------------|
A|---------------------------------------------------------|
E|---------------------------------------------------------|
Otros videos de esta canción
    596 exhibiciones
      • ½ Tono
      • A
      • Bb
      • B
      • C
      • Db
      • D
      • Eb
      • E
      • F
      • F#
      • G
      • Ab
    • Agregar a la lista

    Afinação da cifra

    Afinador online

      Ops (: Contenido disponible solo en portugués.
      OK