Cifra Club

Loco Paranóico

Silvestre Dangond

Cifrado: Principal (guitarra y guitarra eléctrica)
Selo Cifra Club: esta cifra foi revisada para atender aos critérios oficiais da nossa Equipe de Qualidade.
tono: Am
E|------------------------------------------------|
B|--------3-5p3-------------------5-5p3-----------|
G|--2-4-5-------5p4-2-4-5p4-5p4-5-------5-4-2-0-2-|
D|------------------------------------------------|
A|------------------------------------------------|
E|------------------------------------------------|



E|--0-5-8-0-7-0-5-0-3-0-1-0-3-0-5-7-5-------|
B|------------------------------------8-5-6-|
G|------------------------------------------|
D|------------------------------------------|
A|------------------------------------------|
E|------------------------------------------|


E|---5-7p5------------------------------------------|
B|-8-------6-5-6p5---5-6p5--------------------------|
G|-----------------7-------7-5-4---5p4-7-5-4---4----|
D|-------------------------------7-----------7------|
A|--------------------------------------------------|
E|--------------------------------------------------|


E|--------------------------5-7-5------------------------------------0---|
B|--------------------5-6-8-------8-6-8-6-5---6p5-------5-6-8-6-5----5---|
G|----4-5-7-(4)-4-5-7-----------------------7-----7-5-7--------------5---|
D|--7--------------------------------------------------------------------|
A|-----------------------------------------------------------------------|
E|-----------------------------------------------------------------------|


E|----1-0--------------------8-7-7-7--8-10-10-10-10------|
B|-------------------------------------------------------|
G|-------------7--5-4-5----9---7-7-7-9--10-10-10-10------|
D|--3---2------------------------------------------------|
A|----------5-----3-2-3----------------------------------|
E|-------------------------------------------------------|



      G           (52)    C
Y tú buscas la verdad en mí
       E7                Am
Ay yo busco la verdad en ti
(-63-)         F                    G         (64) Am
Pero olvídate reina que la palabra celos hoy cabe aquí
          G      (52)  C
Ay tu buscas mi fidelidad
       E7            Am
Y yo busco mi felicidad
   (63)        F                G            (64)      Am
Pero olvídate reina de loco paranoico no me trates mas
               G          (52)    C
Usted es un adorno para nuestro amor
                  E7                 Am
Que hace más divertida nuestra relación
           G                C
Loco paranoico no me trates más
             E7                    Am
Más loca paranoica eres tú y algo más
         Am                   Am
Error cometido manchas en la luna
                   G                 Am
Es lo único que quieres mirar hoy en mí
            Am                Am
Pasamos la vida peleando y amando
               G              G#        Am
Tirando y rescatando nuestro amor al fin
                 G                   C
Fui a darte un besito y me gritaste ¡"NO"!
              E7                   Am
Pero fue inevitable El silencio llegó
               G
Y en un beso profundo
         (52)      C        E7
Nuestro amor voló, voló y voló
               Am
Y el mundo estallo
               G
En un beso profundo
               C            E
Nuestro amor voló, voló y voló
                Am
Y el mundo estallo

INTERMEDIO:

E|------8-10-10/12-------8-10-10/12------8-10/12---12-12--13---12-12--13-|
B|---10-------------10-----------------10--------------------------------|
G|-9----------------------------------9------------12-12--14---12-12--14-|
D|-----------------------------------------------------------------------|
A|-----------------------------------------------------------------------|
E|-----------------------------------------------------------------------|

E|--13-13--15---13-13--15------15-----15-|
B|---------------------------------------|
G|--14-14--16---14-14--16--16------16----|
D|---------------------------------------|
A|---------------------------------------|
E|---------------------------------------|

E|--13-13-13-13-13-13-13--12-12-12-10---8---8h10p-7--|
B|---------------------------------------------------|
G|--14-14-14-14-14-14-14--12-12-12-10--9--9-------7--|
D|---------------------------------------------------|
A|---------------------------------------------------|
E|---------------------------------------------------| (x2)


E|-------------------------15-17-15-13-12-10-8-----------|
B|-10-12-13-10--13-15-12---------------------------------|
G|-10-12-14-10--14-16-12---16-17-16-14-12-10-9-----------|
D|-------------------------------------------------------|
A|-------------------------------------------------------|
E|-------------------------------------------------------|

E|-------------------------15-17---17------17-------17-|
B|-10-12-13-10--13-15-12-------------------------------|
G|-10-12-14-10--14-16-12---16-17-------17--------17----|
D|-----------------------------------------------------|
A|-----------------------------------------------------|
E|-----------------------------------------------------|





Tú eres mi razón de ser
Ay yo soy tu realidad también
Pero olvídate reina que un día
el mundo al cambiar deja todo al revés
si piensas que quiero escapar
Ay yo pienso que quieres volar
Pero olvídate reina de loco paranoico
no me has de tilda
Locura es un adorno para nuestro amor
Que hace más distinguida nuestra relación
Loco paranoico no me trates más
Más loca paranoica eres tú y algo más
Error cometido no salen las cuentas
Como quieres que yo no busque la verdad
Pasamos la vida peleando y amando
Rompiendo y reparando pa’ reconciliar
Te fui a dar un besito y me gritaste ¡NO!
Pero fue inevitable El silencio llego
Y en un beso profundo
Nuestro amor voló, voló y voló
Y el mundo estallo
En un beso profundo
Nuestro amor voló, y voló y voló
Y el mundo estallo
Otros videos de esta canción
    1.177 exhibiciones
      • ½ Tono
      • Am
      • Bbm
      • Bm
      • Cm
      • C#m
      • Dm
      • Ebm
      • Em
      • Fm
      • F#m
      • Gm
      • G#m
    • Agregar a la lista

    Afinação da cifra

    Afinador online

      Ops (: Contenido disponible solo en portugués.
      OK