Cifra Club

Que no se enteren

Silvestre Dangond

Cifrado: Principal (guitarra y guitarra eléctrica)
Selo Cifra Club: esta cifra foi revisada para atender aos critérios oficiais da nossa Equipe de Qualidade.
tono: E
E-|----------------------------------|
B-|----------------------------------|
G-|--------------------------3-------|
D-|----2-------2-------2-0-2---------|
A-|1-0---0-1-0---0-1-0---------------|
E-|----------------------------------|


E-|----------------------------------|
B-|----------------------------------|
G-|----------------------3-2---------|
D-|--2-0-2---2-0-2---2-0--0----------|
A-|0-------0-------0-----------------|
E-|----------------------------------|

E-|----------------------------------|
B-|----------------------------------|
G-|----3------3-------3-2-3-0--------|
D-|2-0--0-2-0---0-2-0----------------|
A-|----------------------------------|
E-|----------------------------------|

E-|----------------------------------|
B-|--------------------------3-------|
G-|--3-2-3---3-2-3---3-2-0-2---------|
D-|0-------0-------0-----------------|
A-|----------------------------------|
E-|----------------------------------|

si pueden ver lo unico q cambia es q en cada parte
las notas van subiendo una tonalidad.
espero comentarios jejejejeje
gracias.
Otros videos de esta canción
    838 exhibiciones
      • ½ Tono
      • A
      • Bb
      • B
      • C
      • Db
      • D
      • Eb
      • E
      • F
      • F#
      • G
      • Ab
    • Agregar a la lista

    Afinação da cifra

    Afinador online

      Ops (: Contenido disponible solo en portugués.
      OK