Cifra Club

Angel para un final

Silvio Rodriguez

Cifrado: Principal (guitarra y guitarra eléctrica)
tono: F#m
INTRO

F#m                        D                      C#m

E|--------5-----4-----2-----|--------2-----0-----------|-------------|
B|----------2-----2-----2---|------3---3-----3---3-3-2-|-5------5----|
G|------2-----2-----2-----0-|----2-------2-----2-------|-6----6---6--|
D|----4---------------------|--0-----------------------|----6-------6|
A|--------------------------|--------------------------|-4-----------|
E|--2-----------------------|--------------------------|-------------|

                       D              E

E|-4-----------|-------2-----|-------0-----------|
B|-------5-----|-----3---3---|---------0---------|
G|---6-----6---|---2-------0-|-----1-----1-------|
D|-----6-----6-|-0-----------|---2---------------|
A|-------------|-------------|-------------------|
E|-------------|-------------|-0-----------------|


F#m                        D                      C#m

E|--------5-----4-----2-----|--------2-----0-----------|-------------|
B|----------2-----2-----2---|------3---3-----3---3-3-2-|-5------5----|
G|------2-----2-----2-----0-|----2-------2-----2-------|-6----6---6--|
D|----4---------------------|--0-----------------------|----6-------6|
A|--------------------------|--------------------------|-4-----------|
E|--2-----------------------|--------------------------|-------------|

                       D              E

E|-4-----------|-------2-----|-------0-----------|
B|-------5-----|-----3---3---|---------0---------|
G|---6-----6---|---2-------0-|-----1-----1-------|
D|-----6-----6-|-0-----------|---2---------------|
A|-------------|-------------|-------------------|
E|-------------|-------------|-0-----------------|


   F#m                           E 
A)Cuentan que cuando un silencio aparecia entre dos
 D                         A             C#m 
era que pasaba un angel que les robaba la voz
 F#m                     D 
y hubo tal silencion el dia que nos tocaba olvidar
 A              C#m         D                  E 
que desde entonces yo todavia no termine de callar.

A)Todo empezo en la sorpresa, en un encuentro casual
pero la noche es traviesa cuando se teje la sal
sin querer se hace una ofrenda, que pacta con el dolor
o pasa un angel, se hace leyenda y se convierte en amor.

   A                F#m 
B)Ahora comprendo cual era el angel
 C#m 
que entre nosotros paso
 D      Adim   E        Bdim   F#m             E 
era el mas terrible, el implacable, el mas feroz
 A                          C#m 
ahora comprendo en total este silencio mortal
 D        Adim   A         F#m 
angel que pasa, besa y abraza
 Bm     E        F#m 
angel para un final.


   F#m                         D                         C#m

E|--------5-----4-----2-----|--------2-----0-----------|-------------|
B|----------2-----2-----2---|------3---3-----3---3-3-2-|-5------5----|
G|------2-----2-----2-----0-|----2-------2-----2-------|-6----6---6--|
D|----4---------------------|--0-----------------------|----6-------6|
A|--------------------------|--------------------------|-4-----------|
E|--2-----------------------|--------------------------|-------------|

                 D             E

E|-4-----------|-------2-----|-------0-----------|
B|-------5-----|-----3---3---|---------0---------|
G|---6-----6---|---2-------0-|-----1-----1-------|
D|-----6-----6-|-0-----------|---2---------------|
A|-------------|-------------|-------------------|
E|-------------|-------------|-0-----------------|


   F#m                         D                         C#m

E|--------5-----4-----2-----|--------2-----0-----------|-------------|
B|----------2-----2-----2---|------3---3-----3---3-3-2-|-5------5----|
G|------2-----2-----2-----0-|----2-------2-----2-------|-6----6---6--|
D|----4---------------------|--0-----------------------|----6-------6|
A|--------------------------|--------------------------|-4-----------|
E|--2-----------------------|--------------------------|-------------|

                 D             E

E|-4-----------|-------2-----|-------0-----------|
B|-------5-----|-----3---3---|---------0---------|
G|---6-----6---|---2-------0-|-----1-----1-------|
D|-----6-----6-|-0-----------|---2---------------|
A|-------------|-------------|-------------------|
E|-------------|-------------|-0-----------------|


A)Todo empezo en la sorpresa...

B)Ahora comprendo cual era el angel...



acordes complejos

       E A D G B E
Composición de Silvio Rodríguez
52 vistas
    • ½ Tono
    • Am
    • Bbm
    • Bm
    • Cm
    • C#m
    • Dm
    • Ebm
    • Em
    • Fm
    • F#m
    • Gm
    • G#m
  • Agregar a la lista

    0 comentarios

    Ver todos los comentarios

    ¿Lograste tocar?

    0 Tocaron 0 Aún no

    ¡Graba un video tocando Angel para un final y envíanoslo!

    00:00 / 00:00
    Outros vídeos desta música
    Repetir Calidad Automático
    Outros vídeos desta música
    00:00 / 00:00
    Automático
    OK