Cifra Club

Debo Partrime En Dos

Silvio Rodriguez

Cifrado: Principal (guitarra y guitarra eléctrica)
tono: C
[Intro]

E|--0--------------1-----------1--0--|
B|--1--1--1--0-----3--0--1--3-----0--|
G|--2-----------2--2--------------1--|
D|--2--------------0--------------2--|
A|--0-----------------------------2--|
E|--------------------------------0--|

 Am              Dm         E
No se crean que es majaderóa

E|--------------1--0-----0-----------|
B|-----0--1--3--------3-----1--0-----|
G|--2-----------------------------1--|
D|-----------------------------------|
A|-----------------------------------|
E|-----------------------------------|

[Primeira Parte]

 Am                Dm            E
Que nadie se levante aunque me róa
 Am        G\B    C               G
Hace rato que vengo lidiando con gente
 Am          G\B    C               G
Que dice que yo canto cosas indecentes
     C          Am
Te quiero, mi amor
 F             G
No me dejes solo
     C              Am
No puedo estar sin ti
 F    (F#)      G
Mira que yo lloro
  Am                Dm
Óno venó, ya soy decente
          E
Me fue fócil

[Segunda Parte]

 Am                  Dm              E
Que el póblico se agrupe y que me aclame
 Am              G\B   C
Que se acerquen los niños
                 G
Los amantes del ritmo 
 Am            G\B  C                 G
Que se queden sentados los intelectuales
      F
Debo partirme en dos
         E
Debo partirme en dos
                  Am
Unos dicen que aquó
                   F
Otros dicen que alló
                 Am
Y sólo quiero decir
                 F
Sólo quiero cantar
                  Dm
Y no importa la suerte
              C
Que pueda correr
         G
Una canción
   E              Am
Unos dicen que aquó
                   F
Otros dicen que alló
                 Am
Y sólo quiero decir
                F
Sólo quiero cantar
                   Dm
Y no importa que luego
          C            G  E
Me suspendan la funcion

E|--0-----------------0-----------------|
B|--1-----------------0-----------------|
G|--2-----------------1-----------------|
D|--2--0--2--0--2--0--2-----------------|
A|--0-----------------2--0--2--0--2--0--|
E|--------------------0-----------------|
Composición de Silvio Rodríguez
Colaboración y revisión:
  • Gabriel Silva
1.242 vistas
    • ½ Tono
    • A
    • Bb
    • B
    • C
    • Db
    • D
    • Eb
    • E
    • F
    • F#
    • G
    • Ab
  • Agregar a la lista

    0 comentarios

    Ver todos los comentarios

    ¿Lograste tocar?

    1 Tocaron 0 Aún no

    ¡Graba un video tocando Debo Partrime En Dos y envíanoslo!

    00:00 / 00:00
    Outros vídeos desta música
    Repetir Calidad Automático
    Outros vídeos desta música
    00:00 / 00:00
    Automático
    OK