Cifra Club

Oleo de una mujer con sombrero

Silvio Rodriguez

Cifrado: Principal (guitarra y guitarra eléctrica)
tono: Am

Se repite dos veces
   C                  Dm                    E      E7
E|-------0---0---------------1--1^0------------------0-----------|
B|--1-------------1-----3------------3-------------0---3----0----|
G|-----0------------0------2-------------2-------0--------0------|
D|---------2------------0-------0------0---0---------------------|
A|--3--------3---------------------------------------------------|
E|---------------------------------------------0-----------------|
 F        G
E|------------------------1------------------------|
B|--------1-----0-------0---0----------0-----------|
G|-----2------0-----0^2-------2------0---0---------|
D|-------------------------------0^2-------2---0---|
A|-------------------------------------------------|
E|-1--------3--------------------------------3-----|

Estrofa (se repite por cada estrofa)

   C                  Dm                    E      E7
E|-------0---0---------------1--1^0------------------0-----------|
B|--1-------------1-----3------------3-------------0---3----0----|
G|-----0------------0------2-------------2-------0--------0------|
D|---------2------------0-------0------0---0---------------------|
A|--3--------3---------------------------------------------------|
E|---------------------------------------------0-----------------|
 F         G              C        F
E|-------1------------------------------------------------|
B|-----1--------------------------------------------------|
G|---2-----------0------0-------0-------2--------2--------|
D|-------------0-------0------2-------3---3----0---0------|
A|-------------------2------3-----------------2-----------|
E|-1---------3-----------------------1--------------------|
   E                       F         G       C
E|---------------------------------------------------------------|
B|-------------------1--------------------------------1-------1--|
G|-------1--------------2---------2--------0--------0-------2----|
D|-----2---2-----2--------------3--------0-------2-------0-------|
A|---2---------0-------------------------------3-------2---------|
E|---------------------------1---------3-------------------------|
                       F                    G
E|----------------------------------------------------|
B|---------1---------1-----------------3-------------|
G|-------2---------2---------2-------2---3------0-----|
D|-----2---------2---------3---3---0-----------0------|
A|---0------------------------------------------------|
E|------------3---------1---------------------3-------|

E|-----------1------|
B|---------0---0----|
G|-----0^2-------2--|
D|------------------|
A|------------------|
E|------------------|

En la última estrofa

(4 veces)
  C
E|------------------------------------------|
B|---------1-------1-----------1---------1--|
G|------0-------2------------2---------2----|
D|----2-------0------------2---------2------|
A|--3-------2------------3------------------|
E|--------------------------------3---------|
    F                    C
E|--------------------------------|
B|-----------------3-----------1--|
G|-------2-------2---3--------2---|
D|-----3---3---0------------0-----|
A|------------------------3-------|
E|---1----------------------------|
Composición de Silvio Rodríguez
77 vistas
    • ½ Tono
    • Am
    • Bbm
    • Bm
    • Cm
    • C#m
    • Dm
    • Ebm
    • Em
    • Fm
    • F#m
    • Gm
    • G#m
  • Agregar a la lista

    0 comentarios

    Ver todos los comentarios

    ¿Lograste tocar?

    0 Tocaron 0 Aún no

    ¡Graba un video tocando Oleo de una mujer con sombrero y envíanoslo!

    00:00 / 00:00
    Outros vídeos desta música
    Repetir Calidad Automático
    Outros vídeos desta música
    00:00 / 00:00
    Automático
    OK