Cifra Club

Sueño con serpientes

Silvio Rodriguez

Cifrado: Principal (guitarra y guitarra eléctrica)
tono: C
Intro:


E|-------------------|
B|----3-3--1-1--0----|
G|--0-------------0--|
D|-------------------|
A|-------------------|
E|-------------------|

E|--------------3-3---3-3-3-1-1-1-0-0------|
B|--------0-1-3-----------------------0----|
G|--0-0-2-------------------------------0--|
D|-----------------------------------------|
A|-----------------------------------------|
E|-----------------------------------------|

E|---------------------1-1-1-0-0-----------|
B|--0-1-3-3-3-1-0----------------3-3-1-----|
G|----------------0------------------------|
D|-----------------------------------------|
A|-----------------------------------------|
E|-----------------------------------------|

E|---------------------|
B|--0-1-3-3-3-1-0------|
G|----------------0----|
D|---------------------|
A|---------------------|
E|---------------------|



(Tocar la guitarra arpegiada)


G  
Sueño con serpientes

con serpientes de mar
            Dm 
con cierto mar, ay
    F               G  
de serpientes sueño yo


G  
Largas, transparentes

y en sus barrigas llevan
      Dm 
lo que puedan
   F            G  
arrebatarle al amor


Dm  F  G  
Oooohhh!
Dm          F           G  
la mato y aparece una mayor
Dm  F  G  
Oooohhh!
Dm              F              G  
con mucho mas infierno en digestión


G  
No quepo en su boca

me trata de tragar
        Dm 
pero se atora
       F            G  
con un trébol de mi sien


G  
Creo que esta loca
                      Dm 
le doy de masticar una paloma
       F 
y la enveneno
      G  
de mi bien


Dm  F  G  
Oooohhh!
Dm          F           G  
la mato y aparece una mayor
Dm  F  G  
Oooohhh!
Dm              F              G  
con mucho mas infierno en digestión


G  
Esta al fin me engulle
                          Dm 
y mientras por su esófago paseo
      F                G  
voy pensando en que vendrá


G  
Pero se destruye

cuando llego a su estomago
     Dm           F           G  
y planteo con un verso, una verdad


Dm  F  G  
Oooohhh!
Dm          F           G  
la mato y aparece una mayor
Dm  F  G  
Oooohhh!
Dm              F              G  
con mucho mas infierno en digestión
Dm  F  G  
Oooohhh!
Dm          F           G  
la mato y aparece una mayor.
Composición de Silvio Rodríguez
21 vistas
    • ½ Tono
    • A
    • Bb
    • B
    • C
    • Db
    • D
    • Eb
    • E
    • F
    • F#
    • G
    • Ab
  • Agregar a la lista

    0 comentarios

    Ver todos los comentarios

    ¿Lograste tocar?

    0 Tocaron 0 Aún no

    ¡Graba un video tocando Sueño con serpientes y envíanoslo!

    00:00 / 00:00
    Outros vídeos desta música
    Repetir Calidad Automático
    Outros vídeos desta música
    00:00 / 00:00
    Automático
    OK