Cifra Club

Flowers Never Bend With The Rainfall

Simon & Garfunkel

Cifrado: Principal (guitarra y guitarra eléctrica)
tono: A
(intro) A

(solo)
                                    |--------faster--------|
E|-------------------0---------3----------3--3--3--3--3--3--------|
B|----------------------3------3--------3--3--3--3--3--3----------|
G|-------------------------0--------------------------------------|
D|-----0----0----0-------------3----0--0--0--0--0--0--------------|
A|---3----3----3--------------------------------------------------|
E|-3----3----3----------------------------------------------------|

A                       C#m7
Through the corridors of sleep
        D               A
Past the shadows dark and deep
C#m7                    D           A    D  A
My mind dances and leaps in confusion.
A                       C#m7
I dont know what is real,
        D               A
I can't touch what I feel
        C#m7            D               A
And I hide behind the shield of my illusion.

E       D               A               F#m
So I'll continue to continue to pretend
Bm7                 F#m
My life will never end,
       B           D
And flowers never bend
              A
With the rainfall.

(solo)
E|-------------------0---------|
B|----------------------3------|
G|-------------------------0---|
D|-----0----0----0-------------|
A|---3----3----3---------------|
E|-3----3----3-----------------|

A               C#m7
The mirror on my wall
        D               A
Casts an image dark and small
C#m7                      D                 A
But Im not sure at all its my reflection.
A               C#m7
I am blinded by the light
 D                     A
Of God and truth and right
        C#m7         D                  A
And I wander in the night without direction.


E       D               A               F#m
So I'll continue to continue to pretend
Bm7                 F#m
My life will never end,
       B           D
And flowers never bend
              A
With the rainfall.

(solo)
E|-------------------0---------|
B|----------------------3------|
G|-------------------------0---|
D|-----0----0----0-------------|
A|---3----3----3---------------|
E|-3----3----3-----------------|

 A              C#m7
Its no matter if youre born
        D               A
To play the king or pawn
      C#m7              D                       A
For the line is thinly drawn tween joy and sorrow,
A       C#m7
So my fantasy
 D          A
Becomes reality
       C#m7             D               A
And I must be what I must be and face tomorrow.

E       D               A               F#m
So I'll continue to continue to pretend
Bm7                 F#m
My life will never end,
       B           D
And flowers never bend
              A
With the rainfall.

(Solo Final 3x)
E|-------------------0---------|
B|----------------------3------|
G|-------------------------0---|
D|-----0----0----0-------------|
A|---3----3----3---------------|
E|-3----3----3-----------------|
Composición de Paul Simon
Colaboración y revisión:
  • Thales Coelho
  • Thiago Oliveira
191 vistas
    • ½ Tono
    • A
    • Bb
    • B
    • C
    • Db
    • D
    • Eb
    • E
    • F
    • F#
    • G
    • Ab
  • Agregar a la lista

    0 comentarios

    Ver todos los comentarios

    ¿Lograste tocar?

    0 Tocaron 0 Aún no

    ¡Graba un video tocando Flowers Never Bend With The Rainfall y envíanoslo!

    00:00 / 00:00
    Outros vídeos desta música
    Repetir Calidad Automático
    Outros vídeos desta música
    00:00 / 00:00
    Automático
    OK