Cifra Club

Song For The Asking

Simon & Garfunkel

Cifrado: Principal (guitarra y guitarra eléctrica)
Já pensou em usar uma coleção de roupas do Cifra Club? Responda as perguntas abaixo e nos ajude nessa missão! →
tono: Bb (con acordes en la forma de G) Capotraste en 3ª casa
Simon & Garfunkel

From the album 'Bookends'

Tuning: Standard (EADGBe) Capo 3rd Fret
Note: All chords are corresponding to the guitar capoed

                              Intro

    G
e|----3-3-----------3-3---------------------------------------------|
B|----3-3-3---------3-3-3-------------------------------------------|
G|----0-0-0---------0-0-0-------------4-2p0---------3b4-------------|
D|----0-0-0---0-0---0-0-0-0-0-0---0-0-0-----0-----------------------|
A|------2---2-3-2---2---2-0-2-----3/5---------0h2-------------------|
E|--3-------3-----3-------------3-----------------3-----------------|

                            First Verse

                 D     C(add9)  Em(7)           Am         B7
e|---------------2-2---3---0---------0-0-------------------------2--|
B|-------------3-3-3-3-1---1----3----0-0-----0--1---1h3-1--0-----0--|
G|---------------2-2-2------------0--0-0--2----------------2--------|
D|---------0---0-0-0-0-2---2----2----2-2-----0--2---2---2--------1--|
A|--0---2--------------3---3----2----2----3----------------2-2------|
E|------------------------------------------------------------------|
   This is my song     for the asking,   ask me and I will play, so-
 
 C(add9) D C   G    C(II)      C                          G(II)
e|--3----2-0--------------------------------------------------------|
B|--1----3-1---3----5-------------------------------------0---------|
G|-------------0------------------0--------4-2p0----------0---------|
D|-------0----------5---5------0h2----0-0--------0------------------|
A|--3------3------------3-----------3-3/5----------0h2----2---------|
E|-------------3---------------------------------------3--3---------|
  sweet-ly I'd make you smile

                            Second Verse

                 D     C(add9)  Em(7)           Am         B7
e|---------------2-2---3---0---------0-0-----------------------------0---|
B|-------------3-3-3-3-1---1----3----0-0-------0--1---1/3----1-0---------|
G|---------------2-2-2------------0--0-0--2--------------------2---------|
D|---------0---0-0-0-0-2---2----2----2-2-------0--2---2/4----2-----1-----|
A|--0---2--------------3---3----2----2----3--------------------2-----2---|
E|-----------------------------------------------------------------------|
  This is my tune      for the  taking,   take it don't turn a-way,  I've-

  B7 C(add9) D C   G    C(II)      C                         
e|-2----3----2-0----------------------------------------------------|
B|-0----1----3-1---3----5---5---------------------------------------|
G|-----------------0------------------0--------4-2p0---------3b4----|
D|-1---------0----------5---5------0h2----0-0--------0--------------|
A|------3------3------------3-----------3-3/5----------0h2----------|
E|-----------------3---------------------------------------3--------|
   been wai - ting all my life

                              Bridge

   G       Em                         B7    G7
e|------------0-0--0--0-----0-----0---2-2---1----------------1------|
B|--------------0-----0--0-----0----0-0---0-0--0-------------0------|
G|---------0--0----------0--0-----0-0---2---------0----------0------|
D|---------2--2-2--2--2-----2--2--2---1---1-0--0-------------0------|
A|------------2----2-----2-----2----2-------2-----2-----------------|
E|-3-2p0---0--------------------------------------------------------|
           Thinkin' it over I've been sad,  thinkin' it over I'd

   G7  C(sus4)          G               C(add9)  Em(7)
e|-1---0--------------------------------3---0-----------------------|
B|-0---1----3---1-------0------3--3-----1---1---1-------------------|
G|-----0----0---0----2--0---------------------------0---------------|
D|-0---2--------2----0------------0-----2-------2-------------------|
A|----------3------------------2--2---------3---2-------------------|
E|----------------------3------3------------------------------------|
   be more than glad to change my ways, for the as-king, 
         Am              B7          C(add9) D    C G      C(II)
e|----------------------------2---2---3------2----0-----------------|
B|------0--1---1h3-1----0-----0---0---1-----------1-3----5----------|
G|--2-------------------2-----2---------------------0----3----------|
D|------0--2---2---2----1-----1---1---2------0----2------5--5-------|
A|--3-------------------2---------2---3-----------3-2-------3-------|
E|--------------------------------------------------3---------------|
    ask me and I   will play, all the love   that I hold in-side

                               G
e|-------------------------------------|
B|-----------------------------0-------|
G|----0--------4-2p0-----------0-------|
D|-0h2----0-0--------0-----------------|
A|------3-3/5----------0h2-----2-------|
E|-------------------------3---3-------|

(Play and hum second verse and end on the bend)
hm-mm-mm-mmm-mm-mmm-mm-mmm-mm...    
Compositor não encontrado.
175 vistas
    • ½ Tono
    • A
    • Bb
    • B
    • C
    • Db
    • D
    • Eb
    • E
    • F
    • F#
    • G
    • Ab
  • Agregar a la lista

    0 comentarios

    Ver todos los comentarios

    ¿Lograste tocar?

    0 Tocaron 0 Aún no

    ¡Graba un video tocando Song For The Asking y envíanoslo!

    00:00 / 00:00
    Outros vídeos desta música
    Repetir Calidad Automático
    Outros vídeos desta música
    00:00 / 00:00
    Automático
    OK