Cifra Club

The Sound Of Silence

Simon & Garfunkel

Cifrado: Fingerstyle (guitarra y guitarra eléctrica)
Já pensou em usar uma coleção de roupas do Cifra Club? Responda as perguntas abaixo e nos ajude nessa missão! →
tono: D
    Bm            A       A            Bm      Bm            G        D5
E|---------2-2-|-0-----|---------0----------|---------2-5-|-7---7-5-----5--|
B|-----3-3-----|-------|-----2-2---2--3p2---|-----3-3-----|-0----------3---|
G|-4-4---------|-------|-2-2--------------4-|-4-4---------|-0-0-------2----|
D|-------------|-------|--------------------|-------------|----------0-----|
A|-------------|-0-----|--------------2-----|-------------|----------------|
E|-------------|-------|--------------------|-------------|-3--------------|

    D5            G     D5           G           G/D       D5        Bm
E|-----2-2-5-5-|-7---7-5----5-|-----7---7-|-7-9-10-10-9-7-5-|-5/7-5-2------|
B|-3-3---------|-0---------3--|-3-3----0--|------0--------3-|--------------|
G|-------------|-0-0------2---|-------0---|------0--------2-|--------------|
D|-------------|---------0----|-----------|------0--------0-|--------------|
A|-------------|--------------|-----------|-----------------|-------2------|
E|-------------|-3------------|-----3-----|-----------------|--------------|

        A           Bm
E|-----5-----5-|--------------|
B|-3-3------2--|-2-3p2--------|
G|---------2---|-------4------|
D|--------2----|--------------|
A|-----0-------|---2----------|
E|-------------|--------------|
Composición de Paul Simon
Colaboración y revisión:
  • Victor Souza
382 vistas
  • Simplificar cifrado
    • ½ Tono
    • A
    • Bb
    • B
    • C
    • Db
    • D
    • Eb
    • E
    • F
    • F#
    • G
    • Ab
  • Agregar a la lista

    0 comentarios

    Ver todos los comentarios

    ¿Lograste tocar?

    7 Tocaron 2 Aún no

    ¡Graba un video tocando The Sound Of Silence y envíanoslo!

    00:00 / 00:00
    Outros vídeos desta música
    Repetir Calidad Automático
    Outros vídeos desta música
    00:00 / 00:00
    Automático
    Capítulos
    • Dicas Iniciais
    • Exemplo
    • Exercício 1
    • Exercício 2
    • Exercício 3
    • Encerramento
    • Ficha Técnica
    OK