Cifra Club

CELEBRATE

Simple Minds

Tab de bajo: Principal
Time 0-0.43
G|-------------------------------------------------------------|
D|-------------------------------------------------------12\5--|
A|-------------------------------------------------------------|
E|--0535-05--0535-05--0535-05--0535-05--0535-05--0535-05-------|

Build up to chorus
G|---------------5/9------------------------------------------------|
D|--------------------------------5/12-----------------5/12---------|
A|-----------------------530--530--------------530--530-------------|
E|--0535-05--0535---05-----------------0535-05--------------0535-05-|

1.25 "she rag doll"....
G|--------------------------------------------------|
D|----------5/12------------------12\9\7\5----------|
A|--------------------------------------------------|
E|--0535-05------0535-05--0535-05----------0535-05--|

Chorus again up to  2.18
G|-----------------------------------------------|
D|-----------5/12-------------------5/12---------|
A|--530--530---------------530--530--------------|
E|----------------0535-05----------------0535-05-|

2.22
G|-------------------------------------------------------------------------|
D|------------------5/12----------------------------------12\5--------5/12-|
A|-------------------------------------------------------------------------|
E|--0535-05--0535-05-----0535-05--0535-05--0535-05-0535-05-----0535-05-----|

Chorus again....
G|-------------------------------------------------------|
D|-------------------5/12------------------5/12----------|
A|----------530--530--------------530--530---------------|
E|--0535-05---------------0535-05---------------0535-05--|

Play out to fade....
G|-----------------------------------------------------------------------|
D|----------12\5--------------------------12\5---------------------------|
A|-----------------------------------------------------------------------|
E|--0535-05------0535-05--0535-05--0535-05-----0535-05--0535-05--0535-05-|
00:00 / 00:00
Otros videos de esta canción
Repetir
Otros videos de esta canción
Composición de Jim Kerr / Simple Minds
Colaboración y revisión:
  • Vania santo
20 vistas

0 comentarios

Ver todos los comentarios

¿Lograste tocar?

0 Tocaron 0 Aún no

¡Graba un video tocando CELEBRATE y envíanoslo!

00:00 / 00:00
OK