Cifra Club

Glitering Prize

Simple Minds

Tab de bajo: Principal
 INTRO
|-------------------------------------------------|---------------------------|
|-15-15-15-15-15-15-15-15-15-15-15-15-15-15-15-15-|---------------------------|	   x2
|-------------------------------------------------|-3---3---5-----------------|
|-------------------------------------------------|---------------------------|

|--------------12--------------------12-------|----14^--12----12------------------------------|
|-15---15-15------15-12-15---15-15------15-12-|-15---------15----15-12-15---15-15----------14-|
|---------------------------------------------|-------------------------------------15-17-----|
|---------------------------------------------|-----------------------------------------------|

|--------------12--------------------12-------|----14^--12----12------------------------------|
|-15---15-15------15-12-15---15-15------15-12-|-15---------15----15-12-15---15-15-------------|
|---------------------------------------------|-------------------------------------15\-------|
|---------------------------------------------|-----------------------------------------------|

 VERSE
|---------------------------------|-------------------------------|
|-----------5---------------5-----|---5-7-5---5-------------------|	x4
|-8---8-8-----8-5-8---8-8-----8-5-|-8-------8---8-5-8---8-8---3---|
|---------------------------------|-------------------------------|

|---------------------------------|-------------------------------|
|-----------5---------------5-----|-----------------------5-------|	x3
|-8---8-8-----8-5-8---8-8-----8-5-|-3---3---5-----8---5-8---8-5---|
|---------------------------------|-------------------------------|

|---------------------------------|-------------------------------|
|-----------5---------------5-----|-------------------------------|
|-8---8-8-----8-5-8---8-8-----8-5-|-3---3---5---------------------|
|---------------------------------|-------------------------------|

 CHORUS
|-----------------------------|-----------------------------|<---|
|-----------------------------|-----------------------------|    |
|-1-1-1-1-1-1---1-1-1-1-1-1---|-1-1-1-1-1-1---1-1-1-1-1-1---|    |
|-----------------------------|-----------------------------|    |
								 |<---x2
|-----------------------------|-----------------------------|    |
|-----------------------------|-----------------------------|    |   
|-1-1-1-1-1-1---1-1-1-1-1-1---|---------3-----5-------------|    |
|-----------------------------|-5---------------------------|<---|

|-----------------------------|-----------------------------|
|-----------------------------|-----------------------------|
|-1-1-1-1-1-1---1-1-1-1-1-1---|-1-1-1-1-1-1---1-1-1-1-1-1---|
|-----------------------------|-----------------------------|

|-----------------------------|
|-----------------------------|
|---------3-----5-------------|
|-5---------------------------|

 REPEAT INTRO, VERSE & CHORUS

 OUTRO
|---------------------------------|-------------------------------|
|-----------5---------------5-----|---5-7-5---5-------------------|	x2
|-8---8-8-----8-5-8---8-8-----8-5-|-8-------8---8-5-8---8-8---3---|
|---------------------------------|-------------------------------|

|-10-------------------------------|-------------------------7-10---|
|------------5---------------------|---5-7-5---5--------------------|
|----8-8-8-----8-5-8---8-8---5-8-5-|-8-------8---8-5-8---8-8--------|
|----------------------------------|--------------------------------|

|---------------------------------|-------------------------------|
|-----------5---------------5-----|---5-7-5---5-------------------|	X8(REPEATED TILL FADE OUT)
|-8---8-8-----8-5-8---8-8-----8-5-|-8-------8---8-5-8---8-8---3---|
|---------------------------------|-------------------------------|
00:00 / 00:00
Otros videos de esta canción
Repetir
Otros videos de esta canción
Composición de Simple Minds
Colaboración y revisión:
  • Vania santo
38 vistas

0 comentarios

Ver todos los comentarios

¿Lograste tocar?

0 Tocaron 0 Aún no

¡Graba un video tocando Glitering Prize y envíanoslo!

00:00 / 00:00
OK