Cifra Club

Hunter And Hunted

Simple Minds

Tab de bajo: Principal
Tuning: EADG

G|------------:II--------------|
D|--8-h9-h10--:II---8-h9-h10~~-|Play on the snare drum over and over 
A|------------:II--------------|Then hold the 10 (0:30)
E|------------:II--------------|

G|--8-h7--7/10\7----------------8---------------------------|
D|----------------8/10\8---8\6-----8-h10--8-h10--10\\-------|Slide down to 3
A|----------------------------------------------------------|
E|----------------------------------------------------------|

0:50--
      X4      X4      X4     X4     X3      X1
G|-----------------------------------------------------------|
D|-----------------------------------------------------------|
A|--3-3-3---1-1-1---3-3-3---1-1-1---------------1------------|
E|--------------------------------4-4-4---4-4-4--------------|

   

   X4           X2           X2          
G|-----------p5-----------p3--------------------------|
D|-------------------------------------p6-------------|
A|--3-3-3--3-----1-1-1--1-----------------------------|
E|----------------------------4-4-4--4----------------|

      X4     X4       X4      X4        X1       X2        X1
G|----------------------------------------------------------------------|
D|----------------------------------------------------------------------|
A|--3-3-3---1-1-1---3-3-3----1-1-1-------------------------------1------|
E|-------------------------------------4-4-4---6-4-4-4---6-4-4-4--------|

2:36
      X4           X2           X2             X2
G|-----------p5-----------p3--------------------------p5---------|
D|------------------------------------p6-------------------------|
A|--3-3-3--3-----1-1-1--1-------------------3-3-3---3------------|
E|---------------------------4-4-4--4----------------------------|

      X2          X2            X2
G|-----------p3------------------------p5------|
D|-----------------------p6--------------------|
A|--1-1-1--1------------------3-3-3--3---------|
E|--------------4-4-4--4-----------------------|

Changes here 3:15
     X2          X1         X1              X2            X1        X1
G|-------------------------------------------------p5-----------------------|
D|--------------------------------------------------------------------------|
A|-----------------------1-1-1-1-1-1-----3-3-3-3-3-3-------------1-1-1-1-1--|
E|-4-4-4-4-4--3-3-3-3-3--------------------------------3-3-3-3-3------------|

3:33 Interlude...

G|----------------8h7--7/10\7----------------8-----------------------------|
D|--8-h9-h10-------------------8/10\8---8\6-----8-h10--8-h10---------------|
A|-------------------------------------------------------------------------|
E|-------------------------------------------------------------------------|


G|-----------------------p3----------p5----------p5------------------------|
D|--4-4-4-4-4-------------------------------------------------3-5-3-3-3-3--|
A|-------------1-1-1-1-1----3-3-3-3-3---3-3-3-3-3--1-1-1-1-1---------------|
E|-------------------------------------------------------------------------|
00:00 / 00:00
Otros videos de esta canción
Repetir
Otros videos de esta canción
Composición de Simple Minds
Colaboración y revisión:
  • Vania santo
22 vistas

0 comentarios

Ver todos los comentarios

¿Lograste tocar?

0 Tocaron 0 Aún no

¡Graba un video tocando Hunter And Hunted y envíanoslo!

00:00 / 00:00
OK