Cifra Club

Somebody Up There Likes You

Simple Minds

Tab de bajo: Principal
Tuning: EADG

Equally as good as Theme For Great Cities, but has been largely forgotten. Some great 
live versions on you-tube. Punchy bass.

G|------I-p5-p5-p5-p7-p5--I--p5-p5-p5-p7-p5---I--p5-p5-p5-p7-p5----|
D|--(7)-I---------------7-I-----------------7-I-----------------7--|ETC..
A|------I-----------------I-------------------I--------------------|
E|------I-----------------I-------------------I--------------------|

G|--p5-p5-p5-p7-(p5)-----I--7-H9---|
D|-----------------7-(7)-I---------|Play main riff X 7 then the 7-H9
A|-----------------------I---------|Second time riff X5
E|-----------------------I---------|

Break 1:08
G|-------5-7/12-----|
D|------------------|X4
A|-5-5-5------------|
E|------------------|

G|-----7-------5-7/12-----7--------5-7/12-------5-7/12------5-7~~~--|
D|------------------------------------------------------------------|Let ring
A|-3-3---5-5-5--------3-3----5-5-5--------5-5-5--------5-5-5--------|
E|------------------------------------------------------------------|



| /  slide up
| \  slide down
| h  hammer-on
| p  pull-off
| ~  vibrato
| +  harmonic
| x  Mute note
00:00 / 00:00
Otros videos de esta canción
Repetir
Otros videos de esta canción
Composición de Simple Minds
Colaboración y revisión:
  • Vania santo
24 vistas

0 comentarios

Ver todos los comentarios

¿Lograste tocar?

0 Tocaron 0 Aún no

¡Graba un video tocando Somebody Up There Likes You y envíanoslo!

00:00 / 00:00
OK